PrimaNota.ru - самый крупный в мире бесплатный архив песенных текстов, аккордов, табулатур и нот


Propagandhi - Tertium Non Datur - таба, видео

Регистрация Запомнить меня
Войти через:  Facebook Google Twitter Vk Yandex Mail.ru

Propagandhi - Tertium Non Datur - таба, видео

Печатать
Просмотров: 113
Propagandhi - Tertium Non Datur

Album: Supporting Caste
Instrument: Guitar
Tuning: Drop C#

Tabbed By: Rolf Oslo


Intro

d#||--------------------------------|--------------------------------|
Bb||---10-10-10-10------------------|--------------------------------|
F#||---10-10-7--9------9--9--10--10-|----1010-------10101010---9-9-9-|
C#||-0-7--7--7--7---7--10-10-10--10-|-8--1010-8--8--10101010-8-9-9-9-|
G#||-0--------------7--7--7--8---8--|-8--8-8--8--8--8-8-8-8--8-7-7-7-|
C#||-0--------------7---------------|-8-------8--8-----------8-------| x2

d#||--------------------------------|---------------------------------------|
Bb||---10-10-10-10------------------|---------------11-11--11--11-11-11--11-|
F#||---10-10-7--9------9--9--10--10-|----1010-9--9--x--x---x---x--x--x---x--|
C#||-0-7--7--7--7---7--10-10-10--10-|-8--1010-10-10-12-12--12--12-12-12--12-|
G#||-0--------------7--7--7--8---8--|-8--8-8--8--8--10-10--10--10-10-10--10-|
C#||-0--------------7---------------|-8-------------------------------------|

d#||--------------------------------|--------------------------------|
Bb||---10-10-10-10------------------|--------------------------------|
F#||---10-10-7--9------9--9--10--10-|----1010-------10101010---9-9-9-|
C#||-0-7--7--7--7---7--10-10-10--10-|-8--1010-8--8--10101010-8-9-9-9-|
G#||-0--------------7--7--7--8---8--|-8--8-8--8--8--8-8-8-8--8-7-7-7-|
C#||-0--------------7---------------|-8-------8--8-----------8-------|

d#||--------------------------------------|
Bb||--------------------------------------|
F#||--------------------------------------|
C#||--------------------------------------|
G#||--------------------------------------|
C#||-h8-h5-h7-h8-h5-h7-h8-h5-h7-h8-h5-h7--|


Verse

d#||----------------------|
Bb||-------101010-1010-10-|
F#||-------101010-7-7--9--|
C#||-0--0--7-7-7--7-7--7--|
G#||-0--0-----------------|
C#||-0--0-----------------|x7

d#||----------------------------------------|
Bb||-10-10-------10-10-10--11---5-5-5--5----|
F#||-10-9--------10-10-10--10---5-5-5-----7-|
C#||-7--7--10----8--8--8---8----5-5-5-------|
G#||-------10-------------------------------|
C#||-------10-------------------------------|

d#||----------------------|
Bb||-------101010-1010-10-|
F#||-------101010-7-7--9--|
C#||-0--0--7-7-7--7-7--7--|
G#||-0--0-----------------|
C#||-0--0-----------------|x3


d#||-------------------------------------------|
Bb||-----------------10-1010-1111--------------|
F#||----10-10121212--10-1010-1010---------3----|
C#||-0--x--x-x-x-x---8--8-8--8-8---5-5-5--3--3-|
G#||-0--8--8-101010----------------5-5-5--1--3-|
C#||-0-----------------------------5-5-5-----3-|

d#||----------------------------------|
Bb||-------101010-1010-10-------------|
F#||-------101010-7-7--9------5--3--2-|
C#||-0--0--7-7-7--7-7--7---0----------|
G#||-0--0------------------0----------|
C#||-0--0------------------0----------|


Break

Guitar #1
d#||---------------------|
Bb||----3-----3-----3----|
F#||-3--2--3--2--3--2--3-|
C#||-3--0--3--0--3--0--3-|
G#||-1-----1-----1-----1-|
C#||---------------------|

Guitar #2
d#||-------------------------|
Bb||-2-2-2-2-2-2-2-2-2-2-2-2-|
F#||-3-2-0-3-2-0-3-2-0-3-2-0-|
C#||-------------------------|
G#||-------------------------|
C#||-------------------------|

then
d#||------------------------------------------|
Bb||-11-11-11-11-11-11-11-11-11----11--11--11-|
F#||-12-12-12-12-12-12-12-12-12----12--12--12-|
C#||-12-12-12-12-12-12-12-12-12----12--12--12-|
G#||-10-10-10-10-10-10-10-10-10----10--10--10-|
C#||------------------------------------------|


d#||----------------------|
Bb||-------101010-1010-10-|
F#||-------101010-7-7--9--|
C#||-0--0--7-7-7--7-7--7--|
G#||-0--0-----------------|
C#||-0--0-----------------|x3

d#||-----------------|
Bb||-6h8--5----------|
F#||---------7--5----|
C#||---------------5-|
G#||---------------5-|
C#||---------------5-|

Chorus
d#||--------------------------------------------|
Bb||--------------------------------------------|
F#||----5----------5----------5-----------------|
C#||-0--5--0----0--5--5----0--5--3---3--5--3--0-|
G#||-0--3--0----0--3--3----0--3--3---3--5--3--0-|
C#||-0-----0----0-----2----0-----3---3--5--3--0-|

d#||-----------------------------------|------------------|
Bb||-----------------------------------|------------------|
F#||-10-10-9--9----10-9--9----10-9--9--|------------------|
C#||-10-10-10-10---10-10-10---10-10-10-|-7--5--3----------|
G#||-8--8--7--7----8--7--7----8--7--7--|----------7--5--3-|
C#||-----------------------------------|------------------|

d#||----------------------------------------|
Bb||-----------------------5-6--5---8-6-5-6-|
F#||----5----------5-------5-5--5---5-5-5-5-|
C#||-0--5--0----0--5--5----5-5--5---5-5-5-5-|
G#||-0--3--0----0--3--3---------------------|
C#||-0-----0----0-----2---------------------|

d#||-----------------------------------|------------------|
Bb||-----------------------------------|------------------|
F#||-10-10-9--9----10-9--9----10-9--9--|--2-0-------------|
C#||-10-10-10-10---10-10-10---10-10-10-|------2-0-2-0-----|
G#||-8--8--7--7----8--7--7----8--7--7--|--------------2-0-|
C#||-----------------------------------|------------------|

d#||-------------------------------|--------------------------------------------|
Bb||-------------------------------|--------------------------------------------|
F#||----5----------5----------5----|--------------------------------------------|
C#||-0--5--0----0--5--5----0--5--3-|--8--8--8---5-5-8-5-5-8-5-5-8-5-5-7-5-5-7-5-|
G#||-0--3--0----0--3--3----0--3--3-|--8--8--8---5-5-5-5-5-5-5-5-5-5-5-5-5-5-5-5-|
C#||-0-----0----0-----2----0-----3-|--8--8--8---5-5-5-5-5-5-5-5-5-5-5-5-5-5-5-5-|

d#||------------------------------------|
Bb||------------------------------------|
F#||------------------------------------|
C#||-8--8--10-8--8--10-8--8--10-8--8--7-|
G#||-8--8--8--8--8--8--8--8--8--8--8--7-|
C#||-8--8--8--8--8--8--8--8--8--8--8--7-|


d#||----------------|
Bb||---10---10---10-|
F#||---10---9----7--|
C#||---7----7----7--|
G#||----------------|
C#||-0----0----0----| x8

d#||--------------------------------|
Bb||-101010-101010-101010-101010-10-|
F#||-9-9-9--7-7-7--101010-9-9-9--7--|
C#||-7-7-7--7-7-7--7-7-7--7-7-7--7--|
G#||--------------------------------|
C#||--------------------------------|

d#||----------------|
Bb||---10---10---10-|
F#||---10---9----7--|
C#||---7----7----7--|
G#||----------------|
C#||-0----0----0----| x2

d#||----------------------------------------------------------|
Bb||-101010-101010-101010-101010--5-5-5-5-5-5-5-5-5-5-5-5-5-5-|
F#||-9-9-9--7-7-7--101010-9-9-9---6-6-6-6-6-6-6-7-7-7-7-7-7-7-|
C#||-7-7-7--7-7-7--7-7-7--7-7-7---7-7-7-7-7-7-7-7-7-7-7-7-7-7-|
G#||----------------------------------------------------------|
C#||----------------------------------------------------------|

d#||----------------|         |----|
Bb||---10---10---10-|         |-10-|
F#||---10---9----7--|         |-10-|
C#||---7----7----7--|         |-10-|
G#||----------------|         |-8--|
C#||-0----0----0----| x7 then |----|


Acoustic part

d#||--------------------------------------------|
Bb||---5----------------------------------------|
F#||---5---2-----5----------10---9--------------|
C#||-------3-----5---2------12---10-------------|
G#||-----------------3--------------------------|
C#||-0---0-----2---2------8----8------0--5--2---| x3
       
                                      dist.
d#||---------------------------------------------|
Bb||---5-----------------------------------------|
F#||---5---2-----5----------10---9---------------|
C#||-------3-----5---2------12---10---3--5--3--2-|
G#||-----------------3----------------3--5--3--2-|
C#||-0---0-----2---2------8----8------3--5--3--2-|

d#||----------------------|
Bb||-------101010-1010-10-|
F#||-------101010-7-7--9--|
C#||-0--0--7-7-7--7-7--7--|
G#||-0--0-----------------|
C#||-0--0-----------------|x7

d#||-----------------------------|
Bb||-10--10--10--10--10-10-11-11-|
F#||-10--10--12--12--10-10-10-10-|
C#||-10--10--10--10--8--8--8--8--|
G#||-----------------------------|
C#||-----------------------------|


Outro
d#||--------------------------------------------------|
Bb||---5----------------------------------------------|
F#||---5---2-------5------------10---9----------------|
C#||-0-----3----2--5---2-----8--12---10----3--5--3--5-|
G#||-0----------2------3-----8-------------3--5--3--3-|
C#||-0----------2------------8-------------3--5--3--2-|

d#||-----------------------------------------------------|
Bb||---5-------------------------------------------------|
F#||---5---2-------5------------10---9-------------------|
C#||-0-----3----2--5---2-----8--12---10----10-10--10--10-|
G#||-0----------2------3-----8-------------10-10--10--10-|
C#||-0----------2------------8-------------10-10--10--10-| x2

d#||--------------------------------------------------|
Bb||---5----------------------------------------------|
F#||---5---2-------5------------10---9----------------|
C#||-0-----3----2--5---2-----8--12---10----3--5--3--2-|
G#||-0----------2------3-----8-------------3--5--3--2-|
C#||-0----------2------------8-------------3--5--3--2-|
Добавлено: 24.07.2013
Другие материалы по этой песне:
  • Аккорды и текст

Страница создана 24.07.2013
http://primanota.ru/propagandhi/tertium-non-datur-chords.htm
Привет, Гость.
Предлагаем пройти революционный курс по гитаре.
Подарок от PrimaNota.Ru, забирай!