PrimaNota.ru - самый крупный в мире бесплатный архив песенных текстов, аккордов, табулатур и нот


Propagandhi - Resisting Tyranical Government - таба, видео

Регистрация Запомнить меня
Войти через:  Facebook Google Twitter Vk Yandex Mail.ru

Propagandhi - Resisting Tyranical Government - таба, видео

Печатать
Просмотров: 71
Уроки эстрадного вокала в Санкт-Петербурге
Here the whole tab with the EXACT VERSE and Chorus. Chris used there really goofy 
chords before the beave came along to fill out the sound. My friend and I looked 
at every online video there was of this song and these are the chord shapes Chris 
uses. They play it a half step down now. If you go watch this older video (http://
www.youtube.com/watch?v=Q1y3AMzh7nw) and play along you will see for sure! Check it out!
Verse 
E|-12--12-12--12-12--12--12-12-12-12--12--12-12--12-12--12--12-12-12-12|
B|-10--10-10--10-10--10--10-10-10-10--10--10-10--10-10--10--10-10-10-10|
G|--9---9--9---9--9---9---9--9--9--9---9---9--9---9--9---9---9--9--9--9|
D|-11--11-11--11-11--11--11-11-11-11--11--11-11--11-11--11--11-11-11-11|
A|---------------------------------------------------------------------|
E|---------------------------------------------------------------------|

E|-10--10-10--10-10--10--10-10-10-10--10--10-10--10-10--10--10-10-10-10|
B|-10--10-10--10-10--10--10-10-10-10--12--12-12--12-12--12--12-12-12-12|
G|-12--12-12--12-12--12--12-12-12-12--12--12-12--12-12--12--12-12-12-12|
D|-12--12-12--12-12--12--12-12-12-12--12--12-12--12-12--12--12-12-12-12|
A|---------------------------------------------------------------------|
E|---------------------------------------------------------------------|

E|-12--12-12--12-12--12--12-12-12-12--12--12-12--12-12--12--12-12-12-12|
B|-10--10-10--10-10--10--10-10-10-10--10--10-10--10-10--10--10-10-10-10|
G|-11--11-11--11-11--11--11-11-11-11--11--11-11--11-11--11--11-11-11-11|
D|-12--12-12--12-12--12--12-12-12-12--12--12-12--12-12--12--12-12-12-12|
A|---------------------------------------------------------------------|
E|---------------------------------------------------------------------|

E|-10--10-10--10-10--10--10-10-10-10--10--10-10--10-10--10--10-10-10-10|
B|-10--10-10--10-10--10--10-10-10-10--10--10-10--10-10--10--10-10-10-10|
G|-11--11-11--11-11--11--11-11-11-11--10--10-10--10-10--10--10-10-10-10|
D|-12--12-12--12-12--12--12-12-12-12--12--12-12--12-12--12--12-12-12-12|
A|---------------------------------------------------------------------|
E|---------------------------------------------------------------------|

E|-12--12-12--12-12--12--12-12-12-12--12--12-12--12-12--12--12-12-12-12|
B|-10--10-10--10-10--10--10-10-10-10--10--10-10--10-10--10--10-10-10-10|
G|--9---9--9---9--9---9---9--9--9--9---9---9--9---9--9---9---9--9--9--9|
D|-11--11-11--11-11--11--11-11-11-11--11--11-11--11-11--11--11-11-11-11|
A|---------------------------------------------------------------------|
E|---------------------------------------------------------------------|

E|-10--10-10--10-10--10--10-10-10-10--10--10-10--10-10--10--10-10-10-10|
B|-10--10-10--10-10--10--10-10-10-10--12--12-12--12-12--12--12-12-12-12|
G|-12--12-12--12-12--12--12-12-12-12--12--12-12--12-12--12--12-12-12-12|
D|-12--12-12--12-12--12--12-12-12-12--12--12-12--12-12--12--12-12-12-12|
A|---------------------------------------------------------------------|
E|---------------------------------------------------------------------|

E|-12--12-12--12-12--12--12-12-12-12--12--12-12--12-12--12--12-12-12-12|
B|-10--10-10--10-10--10--10-10-10-10--10--10-10--10-10--10--10-10-10-10|
G|-11--11-11--11-11--11--11-11-11-11--11--11-11--11-11--11--11-11-11-11|
D|-12--12-12--12-12--12--12-12-12-12--12--12-12--12-12--12--12-12-12-12|
A|---------------------------------------------------------------------|
E|---------------------------------------------------------------------|

E|-10--10-10--10-10--10--10-10-10-10-----------------------------------|
B|-10--10-10--10-10--10--10-10-10-10-----------------------------------|
G|-11--11-11--11-11--11--11-11-11-11-----------------------------------|
D|-12--12-12--12-12--12--12-12-12-12---------------------2-------------|
A|-------------------------------------------------5-----2-------------|
E|---------------------------------------------------4-5-0-------------|

Verse 2
E|-12--12-12--12-12--12--12-12-12-12--12--12-12--12-12--12--12-12-12-12|
B|-10--10-10--10-10--10--10-10-10-10--10--10-10--10-10--10--10-10-10-10|
G|--9---9--9---9--9---9---9--9--9--9---9---9--9---9--9---9---9--9--9--9|
D|-11--11-11--11-11--11--11-11-11-11--11--11-11--11-11--11--11-11-11-11|
A|---------------------------------------------------------------------|
E|---------------------------------------------------------------------|

E|-10--10-10--10-10--10--10-10-10-10--10--10-10--10-10--10--10-10-10-10|
B|-10--10-10--10-10--10--10-10-10-10--12--12-12--12-12--12--12-12-12-12|
G|-12--12-12--12-12--12--12-12-12-12--12--12-12--12-12--12--12-12-12-12|
D|-12--12-12--12-12--12--12-12-12-12--12--12-12--12-12--12--12-12-12-12|
A|---------------------------------------------------------------------|
E|---------------------------------------------------------------------|

E|-12--12-12--12-12--12--12-12-12-12--12--12-12--12-12--12--12-12-12-12|
B|-10--10-10--10-10--10--10-10-10-10--10--10-10--10-10--10--10-10-10-10|
G|-11--11-11--11-11--11--11-11-11-11--11--11-11--11-11--11--11-11-11-11|
D|-12--12-12--12-12--12--12-12-12-12--12--12-12--12-12--12--12-12-12-12|
A|---------------------------------------------------------------------|
E|---------------------------------------------------------------------|

E|-10--10-10--10-10--10--10-10-10-10--10--10-10--10-10--10--10-10-10-10|
B|-10--10-10--10-10--10--10-10-10-10--10--10-10--10-10--10--10-10-10-10|
G|-11--11-11--11-11--11--11-11-11-11--10--10-10--10-10--10--10-10-10-10|
D|-12--12-12--12-12--12--12-12-12-12--12--12-12--12-12--12--12-12-12-12|
A|---------------------------------------------------------------------|
E|---------------------------------------------------------------------|

E|-12--12-12--12-12--12--12-12-12-12--12--12-12--12-12--12--12-12-12-12|
B|-10--10-10--10-10--10--10-10-10-10--10--10-10--10-10--10--10-10-10-10|
G|--9---9--9---9--9---9---9--9--9--9---9---9--9---9--9---9---9--9--9--9|
D|-11--11-11--11-11--11--11-11-11-11--11--11-11--11-11--11--11-11-11-11|
A|---------------------------------------------------------------------|
E|---------------------------------------------------------------------|

E|-10--10-10--10-10--10--10-10-10-10--10--10-10--10-10--10--10-10-10-10|
B|-10--10-10--10-10--10--10-10-10-10--12--12-12--12-12--12--12-12-12-12|
G|-12--12-12--12-12--12--12-12-12-12--12--12-12--12-12--12--12-12-12-12|
D|-12--12-12--12-12--12--12-12-12-12--12--12-12--12-12--12--12-12-12-12|
A|---------------------------------------------------------------------|
E|---------------------------------------------------------------------|

E|-12--12-12--12-12--12--12-12-12-12--12--12-12--12-12--12--12-12-12-12|
B|-10--10-10--10-10--10--10-10-10-10--10--10-10--10-10--10--10-10-10-10|
G|-11--11-11--11-11--11--11-11-11-11--11--11-11--11-11--11--11-11-11-11|
D|-12--12-12--12-12--12--12-12-12-12--12--12-12--12-12--12--12-12-12-12|
A|---------------------------------------------------------------------|
E|---------------------------------------------------------------------|

E|-10--10-10--10-10--10--10-10-10-10--10--10-10--10-10--10--10-10-10-10|
B|-10--10-10--10-10--10--10-10-10-10--10--10-10--10-10--10--10-10-10-10|
G|-11--11-11--11-11--11--11-11-11-11--10--10-10--10-10--10--10-10-10-10|
D|-12--12-12--12-12--12--12-12-12-12--12--12-12--12-12--12--12-12-12-12|
A|---------------------------------------------------------------------|
E|---------------------------------------------------------------------|

Chorus:
(0:47)
E|---------------------------------------------------------------------|
B|-10-10-10--10-10-10--------------------------------------------------|
G|--9--9--9--10-10-10----9-9-9--9-9-9--7-7-7--7-7-7--------------------|
D|-11-11-11--10-10-10----7-7-7--7-7-7--7-7-7--7-7-7--------------------|
A|-12-12-12--11-11-11----5-5-5--5-5-5--5-5-5--5-5-5--------------------|
E|-----------12-12-12--------------------------------------------------| x3

(1:05)
E|---------------------------------------------------------------------|
B|-10-10-10-10-10-10-----7-7--7-9-9--9-11-11--11--9-9------------------|
G|--9--9--9 10-10-10-----x-x--x-x-x--x--x--x---x--x-x------------------|
D|-11-11-11 10-10 10-----5-5--5-7-7--7--9--9---9--7-7------------------|
A|-12-12-12-11-11-11---------------------------------------------------|
E|----------12-12-12---------------------------------------------------|

Bridge:
(1:10)
E|---------------------------------------------------------------------|
B|-------10-----------7----------5-------------------------------------|
G|----------9-----------9----------7-----------------------------------|
D|-7\11-------4--6\9-------0--4\7--------------------------------------|
A|-0-------------------------------------------------------------------|
E|---------------------------------------------------------------------|

(1:16)
E|---------------------------------------------------------------------|
B|-------10-----------7---------------5--------------------------------|
G|----------9-----------9----------------------------------------------|
D|-7\11-------4--6\9-------0--4\7--------------------------------------|
A|-0---------------------------------------7---------------------------|
E|---------------------------------------------------------------------|

(1:2
E|---------------------------------------------------------------------|
B|-------10------------7------------5---7-5----------------------------|
G|----------9------------9------------7-----7-6------------------------|
D|-7\11-------4---6\9------0---4\7-------------------------------------|
A|-0-------------------------------------------------------------------|
E|---------------------------------------------------------------------|

(1:27)
E|---------------------------------------------------------------------|
B|-------10-------9----------------------------------------------------|
G|--------------------7------------------------------------------------|
D|-7\11------6\9------7------------------------------------------------|
A|-0------------------5------------------------------------------------|
E|---------------------------------------------------------------------|

Outro:
(1:33)
E|----------2----------------------------------------------------------|
B|----------3----------------------------------------------------------|
G|----------4----------------------------------------------------------|
D|-7--------4----------------------------------------------------------|
A|-7--------2----------------------------------------------------------|
E|-5-------------------------------------------------------------------|

(1:38)
E|-4-4--4-4-4--4-4-4--4-4-4--2-2-2--2-2-2--2-2-2--2-2-2--2-------------|
B|-5-5--5-5-5--5-5-5--5-5-5--3-3-3--3-3-3--3-3-3--3-3-3--3-------------|
G|-6-6--6-6-6--6-6-6--6-6-6--4-4-4--4-4-4--4-4-4--4-4-4--4-------------|
D|-6-6--6-6-6--6-6-6--6-6-6--4-4-4--4-4-4--4-4-4--4-4-4--4-------------|
A|-4-4--4-4-4--4-4-4--4-4-4--2-2-2--2-2-2--2-2-2--2-2-2--2-------------|
E|---------------------------------------------------------------------|

(1:44)
E|----------------------2-2-2--2-2-2--2-2-2--2-2-2---------------------|
B|----------------------3-3-3--3-3-3--3-3-3--3-3-3---------------------|
G|-2--2--2--x--2--2--2--4-4-4--4-4-4--4-4-4--4-4-4---------------------|
D|-2--2--2--x--2--2--2--4-4-4--4-4-4--4-4-4--4-4-4---------------------|
A|-0--0--0--x--0--0--0--2-2-2--2-2-2--2-2-2--2-2-2---------------------|
E|----------x----------------------------------------------------------|

(1:49)
E|-4-4-4--4-4-4--4-4-4--4-4-4------------------------------------------|
B|-5-5-5--5-5-5--5-5-5--5-5-5------------------------------------------|
G|-6-6-6--6-6-6--6-6-6--6-6-6------------------------------------------|
D|-6-6-6--6-6-6--6-6-6--6-6-6------------------------------------------|
A|-4-4-4--4-4-4--4-4-4--4-4-4------------------------------------------|
E|---------------------------------------------------------------------|

(1:52)
E|-2--------4----------------------------------------------------------|
B|-3--------5----------------------------------------------------------|
G|-4--------6--------7-------------------------------------------------|
D|-4--------6--------7-------------------------------------------------|
A|-2--------4--------5-------------------------------------------------|
E|---------------------------------------------------------------------| x2

(2:04)
E|---------------------------------------------------------------------|
B|---------------------------------------------------------------------|
G|----------7--------------------------7-------------------------------|
D|-5--------7--------7--------5--------7--------5-5--------------------|
A|-5--------5--------7--------5--------5--------5-5--------------------|
E|-3-----------------5--------3-----------------3-3--------------------|



Добавлено: 16.11.2013
Другие материалы по этой песне:
  • Аккорды и текст

Страница создана 16.11.2013
http://primanota.ru/propagandhi/resisting-tyranical-government-chords.htm
Привет, Гость.
Предлагаем пройти революционный курс по гитаре.
Подарок от PrimaNota.Ru, забирай!