PrimaNota.ru - самый крупный в мире бесплатный архив песенных текстов, аккордов, табулатур и нот


Propagandhi - Propagandhi - аккорды и текст, таба, видео

Регистрация Запомнить меня
Войти через:  Facebook Google Twitter Vk Yandex Mail.ru

Propagandhi - Propagandhi - аккорды и текст, таба, видео

Печатать
Просмотров: 140
Propagandhi
Propagandhi
		   This is Propagandhi.crd off the cd "How to Clean Everything"
If there's a problem w/ how I transcribed it, please tell me what's wrong.


Propagandhi.crd from cd "How to clean everything"
=0D
SKA SUCKS
=0D
(ska upbeat, + listen for how many strums)
=0D
verse=3D
=0D
---10---------------
---10---8--10-----
---11---7---9------
----------------------
---------------------
---------------------
=0D
solo(notes are seperated, they're aren't played that fast together)
=0D

--------------------------------------------------------------------12-12=
-12-10-10-10-9-9-9--9-7h9h7-5-
=0D
-----------------------------------------------------------5-3-7---------=
--------------------------------------------
=0D
-------------------------------------------------------------------------=
-----------------------------------------------
=0D
---5-4-7-5-4-7--7-7-7-9-11-9-7-4-5-4-4-2-0-------------------------------=
--------------------------------
=0D
-------------------------------------------------------------------------=
-----------------------------------------------
=0D
-------------------------------------------------------------------------=
-----------------------------------------------
=0D
fast part=3DD5toG5toA5toG5toA5
=0D
bugs bunny outro=3D
=0D
-----------------------------\10-----
---10-10-10------------------------
-----------------9-11-----------------
------------------------12------------
-----------------------------------------
----------------------------------------
=0D
ANTI MANAFESTO:
=0D
intro=3D
=0D
---------------------------------------------------------------------
-----------
---------------------------------------------------------------------
-----------
----------------------------------------------------------------------
---12-----
---5-5-5------------------------------------------------------------
---12----
---5-5-5------------------------------------------------------------
---10-----
---3-3-3-3-3-3( -----those 3s are harmonics)--------             --------=
----
=0D

(listen for how many strums (ska upbeat here))
=0D
-------------------------------------------------------------------------=
---------------
---8-10-8-10-8------5--8--13--14-13-14--13--15---15-15-15--13-----
---7--9-7--9---7-----4--7---12--13-12-13-12--14----14-14-14-12------
=0D
-------------------------------------------------------------------------=
---------------
=0D
G5 to highE5 to C5 to D5 to D5 to C5
=0D
C5 to D5 to lowE5 to high E5 to LowE5 to highE5 to C5 to D5
=0D

-------------------------------------------------------------------------=
--------------------------
---remember, you strum more than once, listen to the song!-------------
=0D
-----------5-------------------------------------------------------------=
-------------------------
=0D
---5-5-5-5---------------------------------------------------------------=
-------------------------
---5-5-5-3------------------I didn't mess up, the second chord  -----just=

drops
---3-2-3---------------------your first finger in the power chord to the =
2nd
fret
=0D
A5 to C5 to D5
=0D
G5 to C5 to D5 to C5
=0D
---2-------3---------
------3----------------
---------2-------------
------------------------
------------------------
---just hold a D chord and then add a pinky
=0D
highG5 to D5 to highE5 to G5 to D5 to B5 to G5
=0D
solo
=0D

-------------7--------------7--------------------------------------------=
---------
---10-8-----8--10-8-------8---------7-10-8-7-8------7-10-8-7-8------then =
I
don't know how
=0D
----------9--------------9-----------7------------------7----------------=
-------the
next part in the solo
=0D
-------------------------------------------------------------------------=
-----------goes,
but the very end
=0D
-------------------------------------------------------------------------=
----------part
of the solo is:
=0D
-------------------------------------------------------------------------=
------------
=0D
---10-8-12-8----------8---------------------------
----------------------8-------11-11-12-12--------
-------------------9-----------------------------------
-------------------------------------------------------
---then on the second time around, that (11-11-12-12) goes (11-11-12-12-8=
)
---and the end "8" rings off..............
=0D
MIDDLE FINGER RESPONSE:
=0D
D5 to highE5 to A5 (2X then:)
=0D
------------------------------------------------
------------------------------------------------
-----------------------------------------------
--10-10--10-10-10-------10---5--------
--10-10--10-10--8---10-10---5--------
---8---7---8----7--------8---7---3--------
=0D
C5 to A5
=0D
G5 to C5 to A5 to highE5 to G5 to highF5
=0D
C5 to C5 with first finger on 7th fret, to A#5 to F5 to G5
=0D
----------------------                ----------------
------------------------              ------------------
---12-9-10-5------               ---12-10-9---
-------------------------             ------------------
-------2X--------------              -------------------
-----------------------               -------------------
=0D
SHOWDOWN:
=0D
G5 to lowE5 to G5     ------------------------------
                                ------------------------------
                                ----------7----------5-------
                                -------7---------5------------
                                ---5----------3---------------
                                --------------------------------
=0D
LowE5 to D5 to C5 to D5
=0D
highG5 to D5 to C5
=0D
------------------------------------------------------------
-----------------------------------------------------1-----
---0-2-2h4-4-2-0-------------0-2-2h4-2-4--------
-----------------------------------------------------------
-------------------------------------------------------------
-------------------------------------------------------------then do the
first one again
=0D
highG5 to D5 to C5 pause.............B5

--PART.BOUNDARY.0.21136.mail02.mail.aol.com.818125830--     
Добавлено: 07.06.2013
Другие материалы по этой песне:
  • Аккорды и текст

Страница создана 14.05.2012
http://primanota.ru/propagandhi/propagandhi-chords.htm
Привет, Гость.
Предлагаем пройти революционный курс по гитаре.
Подарок от PrimaNota.Ru, забирай!