PrimaNota.ru - самый крупный в мире бесплатный архив песенных текстов, аккордов, табулатур и нот


Propagandhi - Mate ka Moris Ukun Rasik an - текст песни, таба, видео

Регистрация Запомнить меня
Войти через:  Facebook Google Twitter Vk Yandex Mail.ru

Propagandhi - Mate ka Moris Ukun Rasik an - текст песни, таба, видео

Печатать
Просмотров: 102
-------------------------------------------------------------------------------
	                  Mate Ka Moris Ukun Rasik An - Propagandhi
-------------------------------------------------------------------------------
This is an update to a tab i found years ago. Enjoy!

Capo on second fret (F sharp)
F#|---------------------------------------------------------------------------|
C#|--------------------------8~-----------------------8~----------------8~----|
A |--4-5-~-~--4-5--0-2-0-4-5-5~--4-5-0-2-0--------4-5-5~-4-5-0-2-0--4-5-5~-4-5|
E |--7-7-~-~--7-7--2-2-0-7-7-7~--7-7-2-2-0-7~-~-~-7-7-7~-7-7-2-2-0--7-7-7~-7-7|
B |--0-0-~-~-------------------------------5~-~-~-----------------------------|
F#|----------------------------------------3~-~-~-----------------------------|
                                                      (main riff x4)
                                                and around the same time...
F#|------------------------3~-~-----------------------------------------------|
C#|-----------8~-----------3~-~-----8~-----------*------------8---------------|
A |-0-2-0-4-5-5~-4-5-0-2-0-0~-~-4-5-5~-4-5-0-2-0--4---------5-5-4-4-5-2-0-0---|
E |-2-2-0-7-7-7~-7-7-2-2-0------7-7-7~-7-7-2-2-0--7-7-7-7-7-7-7-7-7-7-2-2-0---|
B |---------------------------------------------------------------------------|
F#|---------------------------------------------------------------------------|
                                                    . . . .
     bustin' windows...                   her speedos...
F#|---------------------------------------------------------------------------|
C#|---------------------------------------------------------------------------|
A |---------------------------------------------------------------------------|
E |--5-5-5-5-5-5-5-5-5-5---(main riff x4)-5-5-5-5-5-5-5-5-5-5-5-5-5-5~-~-~-5x-|
B |--5-5-5-5-5-5-5-5-5-5------------------5-5-5-5-5-5-5-5-5-5-5-5-5-5~-~-~-5x-|
F#|--3-3-3-3-3-3-3-3-3-3------------------3-3-3-3-3-3-3-3-3-3-3-3-3-3~-~-~-3x-|
                   
                    a depo-proveran family...
F#|---------------------------------------------7-7-7-7-7-7-7-7---------------|
C#|-5-5-5-6-6-6-8-8-8-6-6-6-5-5-6-6-5-5-5-6-6-6-6-6-6-6-6-6-6-6-5-5-5-6-6-6-8-|
A |-5-5-5-5-5-5-5-5-5-5-5-5-5-5-5-5-5-5-5-5-5-5-5-5-5-5-5-5-5-5-5-5-5-5-5-5-5-|
E |---------------------------------------------------------------------------|
B |---------------------------------------------------------------------------|
F#|---------------------------------------------------------------------------|

F#|---------------------------------------------------------------------------|
C#|-8-8-6-6-6-5-5-6-6-5-5-5-0-0-5-5-6-6-5h6p5------------15h17-17-17---15-17~-|
A |-5-5-5-5-5-5-5-5-5-5-5-5-0-0-5-5-5-5-5-5-5-5-------------------------------|
E |-------------------------------------------7--5~-~-~-----------------------|
B |----------------------------------------------5~-~-~-----------------------|
F#|----------------------------------------------3~-~-~-----------------------|

                                                                in the shadows...
F#|---------------------------------------------7-7-7-7-7-7-7-7---------------|
C#|-5-5-5-6-6-6-8-8-8-6-6-6-5-5-6-6-5-5-5-6-6-6-6-6-6-6-6-6-6-6---------------|
A |-5-5-5-5-5-5-5-5-5-5-5-5-5-5-5-5-5-5-5-5-5-5-5-5-5-5-5-5-5-5---------------|
E |-------------------------------------------------------------5~-~-~-~-~-~--|
B |-------------------------------------------------------------5~-~-~-~-~-~--|
F#|-------------------------------------------------------------3~-~-~-~-~-~--|

                                    and lay still...
F#|---------------------------------3-3-3-3-3-3-3-3-3-3-3-3-3-----------------|
C#|--0--1--0------------------------3-3-3-3-3-3-3-3-3-3-3-3-3-----------------|
A |---0--0--0-----------------------0-0-0-0-0-0-0-0-0-0-0-0-0-----------------|
E |-----------3~-~---(main riff x4)-----------------------------(main riff x4)|
B |-0--0------3~-~------------------------------------------------------------|
F#|-------3---1~-~------------------------------------------------------------|

    held her pledge...
F#|-3-3-3-3-3-3-3-3-3-3-3-----------------------------------------------------|
C#|-3-3-3-3-3-3-3-3-3-3-3--0--1--0--0--0--1--0--0--0--1--0--0--0--1--0--0-----|
A |-0-0-0-0-0-0-0-0-0-0-0---0--0--0--0--0--0--0--0--0--0--0--0--0--0--0--0----|
E |---------------------------------------------------------------------------|
B |-----------------------0--0--------0--0--------0--0--------0--0------------|
F#|-----------------------------3--3--------3--3--------3--3--------3--3------|

       as she laid it...
F#|----0~-----------------1---------------------------------------------------|
C#|----0~------9~---8----------------0~------9~---8---------------------------|
A |------------9~--------------------2~------9~-------------------------------|
E |-2~-----------------------------2~-----------------------------------------|
B |-0~------/7~---/8--10~--2-3-----0~-----/7~---/8--10~---2-3-----------------|
F#|-------0--------------------/4~------0---------------1-----/4~-------------|

(outro)
F#|----------0-----------------------------------------------0-0--------------|
C#|----------1------------------------------------0--1--0--0--3-3-------------|
A |-2--2-2-2-2--4--4-4-4-4h5p4-----((Play x3))-----0--0--0--0-----------------|
E |-2--2-2-2-2--5--5-5-5-5-5-5-/7----------------------------------7/---------|
B |-0--0-0-0-0-----------------------------------0--0--3--3--------7/---------|
F#|----------------------------------------------------------------5/---------|
       . . .       . . .          

-------------------------------------------------------------------------------
Добавлено: 27.09.2013
Другие материалы по этой песне:
  • Аккорды и текст

Страница создана 03.05.2012
http://primanota.ru/propagandhi/mate-ka-moris-ukun-rasik-an-chords.htm
Привет, Гость.
Предлагаем пройти революционный курс по гитаре.
Подарок от PrimaNota.Ru, забирай!