PrimaNota.ru - самый крупный в мире бесплатный архив песенных текстов, аккордов, табулатур и нот


Propagandhi - Ladies Nite In Loserville - таба, видео

Регистрация Запомнить меня
Войти через:  Facebook Google Twitter Vk Yandex Mail.ru

Propagandhi - Ladies Nite In Loserville - таба, видео

Печатать
Просмотров: 89
Intro
E---------------------------------------------------------|
B---------------------------------------------------------|
G-------11----------9-9---------11------------------------|
D-9--12--------/11------9--9-12-------/11-9---------------|
A----------12----------------------12---------------------|
E---------------------------------------------------------|

E---------------------------------------------------------|
B---------------------------------------------------------|
G-----------12xxx----11-----------------------------------|
D-4-4--10-9-12xxx--7-11--------12----12-------------------|
A-4-4--10-9-10xxx--7-9----10-9-10-12-10-12-12-14-14-14----|
E-2-2--8--7--------5------8--7----10----10-10-12-12-12----|

E---------------------------------------------------------|
B---------------------------------------------------------|
G-------------------------11------------------------------|
D-------12----12--------7-11------------------------------|
A-10-9--10-12-10-12-12--7-9-------------------------------|
E-8--7-----10----10-10--5---------------------------------|

Verse
E---------------------------------------------------------|
B---------------------------------------------------------|
G----------------------7-----7----------------------------|
D------2-4-4-----2-4-5-7-4-5-7----------------------------|
A-9-9--2-4-4-9-9-2-4-5-5-4-5-5----------------------------|
E-7-5--0-2-2-7-5-0-2-3---2-3------------------------------|

Verse (guitar 2)
E---------------------------------------------------------|
B---------------------------------------------------------|
G-7-6--9----7-6--9-11-12--7-----7-------------------------|
D------9-4-------9-11-12--7-4-5-7-------------------------|
A-5-4--7-4--5-4--7-9--10--5-4-5-5-------------------------|
E--------2------------------2-3---------------------------|

Solo
E---------------------------------------------------------|
B---------------------------------------------------------|
G----------------------------------------------(11)~------|
D-12xxxx12xxxx—-12xxxx12xxxx-------12xxxxxx-4~-(11)~------|
A-—9xxxx-9xxxx---9xxxx-9xxxx--10-9—10xxxxxx-4~-(-9)~------|
E—-7xxxx-7xxxx---7xxxx-7xxxx--8--7----------2~------------|
     *let ring through*

E---------------------------------------------------------|
B---------------------------------------------------------|
G---6-----6------4----------------------------------------|
D-----4-----4--5---5--7-5-4h5p4-0-------------------------|
A-2-----0-------------------------------------------------|
E---------------------------------------------------------|

E---------------------------------------------------------|
B------------------------7--------------------------------|
G---6-----6------4---4------------------------------------|
D-----4-----4--5---5---5---5------------------------------|
A-2-----0-------------------------------------------------|
E---------------------------------------------------------|


E---------------------------------------------------------|
B---------------------------------------------------------|
G-2-------------------------------------------------------|
D-2-------------------------------------------------------|
A---------------------------------------------------------|
E---------------------------------------------------------|
Добавлено: 27.07.2013
Другие материалы по этой песне:
  • Аккорды и текст

Страница создана 27.07.2013
http://primanota.ru/propagandhi/ladies-nite-in-loserville-chords.htm
Привет, Гость.
Предлагаем пройти революционный курс по гитаре.
Подарок от PrimaNota.Ru, забирай!