PrimaNota.ru - самый крупный в мире бесплатный архив песенных текстов, аккордов, табулатур и нот


Propagandhi - Humane Meat - таба, видео

Регистрация Запомнить меня
Войти через:  Facebook Google Twitter Vk Yandex Mail.ru

Propagandhi - Humane Meat - таба, видео

Печатать
Просмотров: 95
-------------------------------------------------------------------------------
                  Human(e) Meat (The Flensing of Sandor Katz) - PROPAGANDHI
-------------------------------------------------------------------------------
Tabbed by: Francis425
Email: metal_is_crap@hotmail.com

Tuning: Standard (eBGDAE)



Verse
e|--1~----------3~----1~----------3~----0~--------3------|
B|--1~-----1~---3~----1~-----1~---3~----1~----3p1---0----|
G|--2~-----0~---0~----2~-----0~---0~----2~------------2~-|
D|--3~-----2~---0~----3~-----2~---0~----2~---------------|
A|--3~-----3~---2~----3~-----3~---2~----0~---------------|
E|--1~----------3~----1~----------3~---------------------|
 |                                                       | x2
e|---------3~---2~-----------3~---2~----0~---------------|
B|--1~-----3~---3~----1~-----3~---3~----0~--------3------|
G|--0~-----0~---2~----0~-----0~---2~----0~----2p0--------|
D|--2~-----0~---0~----2~-----0~---0~----2~----------4-2~-|
A|--3~-----2~---------3~-----2~---------2~---------------|
E|---------3~----------------3~---------0~---------------|

Pre-Chorus
e|--0~---------3-5-|
B|--1~-----3p1-----|
G|--2~-------------|
D|--2~-------------|
A|--0~-------------|
E|-----------------|

Chorus
e|---------------3-3-----------1-1-----------3------------|
B|-1-1-----------3-3-----------1-1-----------3-3---3h5p1--|
G|-2-2-----5-4---0-0-----5-4---2-2-----5-4---0---0--------|
D|-2-2-----5-5---0-0-----5-5---3-3-----5-5---0------------| x 2
A|-0-0-000-3-2---2-2-----3-2---3-3-----3-2---2------------|
E|---------------3-3-333-------1-1-111-------3------------|

e|----------1~--|
B|-1--1--1--1~--|
G|-2--2--0--2~--|
D|-2--0--2--3~--|
A|-0--2--3--3~--|
E|----------1~--|


REPEAT Verse
REPEAT Chorus

Bridge
e|---------------------------------------------------------------------|
B|----------------------------------6-6-6-6-6-6-6-6--5-5-5-5--8-8-8-8--|
G|----------------------------------5-5-5-5-5-5-5-5--5-5-5-5--7-7-7-7--|
D|--7-7-7-7-7-7--10-9--10-12-12-12--3-3-3-3-3-3-3-3--2-2-2-2--5-5-5-5--|
A|--7-7-7-7-7-7--10-10-10-12-12-12-------------------------------------|
E|--5-5-5-5-5-5--8--7--8--10-10-10-------------------------------------|


e|---------------------------------------------------------------------|
B|----------------------------------6-6-6-6-6-6-6-6--8-8-8-8—-5-5-5-5--|
G|----------------------------------5-5-5-5-5-5-5-5—-7-7-7-7—-5-5-5-5--|
D|--7-7-7-7-7-7--10-9--10-12-12-12--3-3-3-3-3-3-3-3—-5-5-5-5--2-2-2-2--|
A|--7-7-7-7-7-7--10-10-10-12-12-12-------------------------------------|
E|--5-5-5-5-5-5--8--7--8--10-10-10-------------------------------------|


e|---------------------------------------------------------------------|
B|----------------------------------6-6-6-6-6-6-6-6--5-5-5-5--8-8-8-8--|
G|----------------------------------5-5-5-5-5-5-5-5--5-5-5-5--7-7-7-7--|
D|--7-7-7-7-7-7--10-9--10-12-12-12--3-3-3-3-3-3-3-3--2-2-2-2--5-5-5-5--|
A|--7-7-7-7-7-7--10-10-10-12-12-12-------------------------------------|
E|--5-5-5-5-5-5--8--7--8--10-10-10-------------------------------------|


e|---------------------------------------------------------------------|
B|----------------------------------6-6-6-6-6-6-6-6--8-8-8-8—-5-5-5-5--|
G|----------------------------------5-5-5-5-5-5-5-5—-7-7-7-7—-5-5-5-5--|
D|--7-7-7-7-7-7--10-9--10-10-9--10--3-3-3-3-3-3-3-3—-5-5-5-5--2-2-2-2--|
A|--7-7-7-7-7-7--10-10-10-10-10-10-------------------------------------|
E|--5-5-5-5-5-5--8--7--8--8--7--8--------------------------------------|

Breakdown
e|--------------------------------------------------------------------------------|
B|--------------------------------------------------------------------------------|
G|--------------------------------------------------------------------------------|
D|-11-11-11-11---8-8-8-8--7-7-7-7-7-7-7-7--11-11-11-11---8-8-8-8--7-7-7-7-7-7-7-7-|
A|-11-11-11-11---8-8-8-8--7-7-7-7-7-7-7-7--11-11-11-11---8-8-8-8--7-7-7-7-7-7-7-7-|
E|--9--9--9--9---6-6-6-6--5-5-5-5-5-5-5-5---9--9--9--9---6-6-6-6--5-5-5-5-5-5-5-7-|


e|--------------------------------------------------------|
B|--------------------------------------------------------|
G|--------------------------------------------------------|
D|--7-----------8-----7-----5--7-----------8-----7-----5--|
A|--7-----------8-----8-----5--7-----------8-----8-----5--|
E|--5-(5)(5)(5)-6-(6)-5-(5)-3--5-(5)(5)(5)-6-(6)-5-(5)-3--|

e|----------------------------------------------------|
B|----------------------------------------------------|
G|----------------------------------------------------|
D|--7-----------8-----7-----5--7-8-8-8-7-10-10-10-10--|
A|--7-----------8-----8-----5--7-8-8-8-5-10-10-10-10--|
E|--5-(5)(5)(5)-6-(6)-5-(5)-3--5-6-6-6-5--8--8—-8--8--|

e|--1~----------3~----------------------------------------------------------|
B|--1~-----1~---3~----------------------------------------------------------|
G|--2~-----0~---0~----------------------------------------------------------|
D|--3~-----2~---0~----7-----------8-----7-----5--7-----------8-----7-----5--|
A|--3~-----3~---2~----7-----------8-----8-----5--7-----------8-----8-----5--|
E|--1~----------3~----5-(5)(5)(5)-6-(6)-5-(5)-3--5-(5)(5)(5)-6-(6)-5-(5)-3--|


e|--1~----------3~--|
B|--1~-----1~---3~--|
G|--2~-----0~---0~--|
D|--3~-----2~---0~--|
A|--3~-----3~---2~--|
E|--1~----------3~--|


Solo Rhythm 
e|---------------3-3-----------1-1-----------3-3------------|
B|-1-1-----------3-3-----------1-1-----------3-3------------|
G|-2-2-----5-4---0-0-----5-4---2-2-----5-4---0-0-----5-4-5--|
D|-2-2-----5-5---0-0-----5-5---3-3-----5-5---0-0-----5-5-5--|
A|-0-0-000-3-2---2-2-----3-2---3-3-----3-2---2-2-----3-2-3--|
E|---------------3-3-333-------1-1-111-------3-3-333--------|


Solo Lead (Its close enough)
e|------17-------17-------17-------17-------17-------17-20b22r20----17h20p17---17-|
B|20b22----20b22----20b22----20b22----20b22----20b22-------------------------20---|
G|--------------------------------------------------------------------------------|
D|--------------------------------------------------------------------------------|
A|--------------------------------------------------------------------------------|
E|--------------------------------------------------------------------------------|

e|-----------------------------------------------------------------------------------|
B|-20p17-17h20p17----17--------------------------------------------------------------|
G|----------------19----19p17-17h19p17----17-----------------------------------------|
D|-------------------------------------19----19p17-17h19p17----17--------------------|
A|----------------------------------------------------------19----19p17----------17~-|
E|----------------------------------------------------------------------20p17h20-----|


e|-------------------------------------------------------------------------|
B|--13h15-12h13p12-------13h15-12h13p12--------13h15-12h13p12-------13h15--|
G|-----------------12h14----------------12h14-----------------12h14--------|
D|-------------------------------------------------------------------------|
A|-------------------------------------------------------------------------|
E|-------------------------------------------------------------------------|

e|---------------------------------------------------------------------------|
B|--12h13p12-------13h15-12h13h12--------------------------------------------|
G|-----------12h14----------------12h14-14-----------------------------------|
D|--------------------------------------14----12b13r12p10----12b13r12p10-----|
A|--------------------------------------------------------12-------------12--|
E|---------------------------------------------------------------------------|

e|---------------------------------------------------------------------------|
B|-------------------------------8h108-10h12p10-12h13p12-13h15p13-15h17p15---|
G|---------------------------------------------------------------------------|
D|-12b13r12p10----12b13r12p10------------------------------------------------|
A|-------------12-------------12---------------------------------------------|
E|---------------------------------------------------------------------------|

e|------------------------------------|
B|--17h18p17-18h20p18-12-12~--12-12\--|
G|------------------------------------|
D|------------------------------------|
A|------------------------------------|
E|------------------------------------|

| /  slide up
| \  slide down
| h  hammer-on
| p  pull-off
| ~  let ring
| +  harmonic
| x  Mute note
| ===============================================================================

Добавлено: 21.08.2013
Другие материалы по этой песне:
  • Аккорды и текст

Страница создана 21.08.2013
http://primanota.ru/propagandhi/humane-meat-chords.htm
Привет, Гость.
Предлагаем пройти революционный курс по гитаре.
Подарок от PrimaNota.Ru, забирай!