PrimaNota.ru - самый крупный в мире бесплатный архив песенных текстов, аккордов, табулатур и нот


Propagandhi - Haillie Does Hebron - таба, видео

Регистрация Запомнить меня
Войти через:  Facebook Google Twitter Vk Yandex Mail.ru

Propagandhi - Haillie Does Hebron - таба, видео

Печатать
Просмотров: 72
Уроки эстрадного вокала в Санкт-Петербурге
this is a rad song by propagandhi
Tabbed by:soad sk8er
Email:sk8er_skateboadr@hotmail.com

E-|---------------------------------|---------------------------------|
B-|---------------------------------|---------------------------------|
G-|---------------------------------|---------------------------------|
D-|/7~~~~---------------------------|/7---6---5---4-------2~~~--------|
A-|---------------------------------|---------------------------------|
E-|---------------------------------|---------------------------------|


   Riff B                                                   End Riff B
E-|---------------------------------|---------------------------------|
B-|---------------------------------|---------------------------------|
G-|---------------------------------|---------------------------------|
D-|---------------------------------|---------------------------------|
A-|/3--2---1---0--------------------|---------------------------------|
E-|---------------------------------|/4---3---1-------------x-x-x---x-|


   Riff C                                                   End Riff C
E-|-5-------------------------------|(5)------------------------------|
B-|-5-------------------------------|(5)------------------------------|
G-|-5-------------------------------|(5)------------------------------|
D-|-7-------------------------------|(7)------------------------------|
A-|-0-------------------------------|(0)------------------------------|
E-|---------------------------------|---------------------------------|


   Riff D                                                   End Riff D
E-|---------------------------------|--------------x-\-\-\--x-/-/-/---|
B-|---------------------------------|--------------x-\-\-\--x-/-/-/---|
G-|---------------------------------|---(Dnwrds Pk Sl./Upwrds- Pk Sl.)|
D-|---------------------------------|---------------------------------|
A-|---------------------------------|---------------------------------|
E-|---------------------------------|---------------------------------|

   Riff E                                                   End Riff E
E-|-5---x-x-5-------3---x-x-3-------|-1---x-x-1-------3---x-x-3-------|
B-|-5---x-x-5-------3---x-x-3-------|-1---x-x-1-------3---x-x-3-------|
G-|-5---x-x-5-------4---x-x-4-------|-2---x-x-2-------4---x-x-4-------|
D-|---------------------------------|---------------------------------|
A-|---------------------------------|---------------------------------|
E-|---------------------------------|---------------------------------|


   Riff F                                                   End Riff F
E-|---------------------------------|---------------------------------|
B-|-------------1--(1)--------------|---------------------------------|
G-|---------2-----------2-----------|---------0--(0)----------0--(0)--|
D-|-----2-------------------2-------|-----0---------------0-----------|
A-|-0---------------------------0---|-3---------------2---------------|
E-|---------------------------------|---------------------------------|


   Riff G                                                   End Riff G
E-|---------------------------------|---------------------------------|
B-|-------------1--(1)--------------|---------------------------------|
G-|---------2-----------2-----------|---------0-----------------------|
D-|-----2-------------------2-------|-----0-------0-----------0-------|
A-|-0---------------------------0---|-3-------------------2-------2---|
E-|---------------------------------|-----------------3---------------|


   Riff H                                                   End Riff H
E-|---------------------------------|---------------------------------|
B-|---------------------------------|---------------------------------|
G-|-2--------------(2)--------------|---------------------4---5-------|
D-|-2--------------(2)--------------|-5-------------------4---5-------|
A-|-0--------------(0)--------------|-5-------------------2---3-------|
E-|---------------------------------|-3-------------------------------|


   Riff I                                                   End Riff I
E-|---------------------------------|---------------------------------|
B-|---------------------------------|---------------------------------|
G-|---------------------------------|---------------------5---4-------|
D-|-3--------------(3)--------------|-5-------------------5---4-------|
A-|-3--------------(3)--------------|-5-------------------3---2-------|
E-|-1--------------(1)--------------|-3-------------------------------|


   Riff J                                                   End Riff J
E-|---------------------------------|---------------------------------|
B-|---------------------------------|---------------------------------|
G-|-2--------------(2)--------------|(2)------------------------------|
D-|---------------------------------|---------------------------------|
A-|---------------------------------|---------------------------------|
E-|---------------------------------|---------------------------------|


   Riff K                                                   End Riff K
E-|---------------------------------|---------------------------------|
B-|---------------------------------|---------------------------------|
G-|(2)-------------(2)--------------|(2)------------------------------|
D-|---------------------------------|---------------------------------|
A-|---------------------------------|---------------------------------|
E-|---------------------------------|---------------------------------|


   Riff L                                                   End Riff L
E-|---------------------------------|-----------------------------------|
B-|-----------------1p0-----1p0-----|-----------------1p0-----1p0-------|
G-|---------------------------------|-----------------------------------|
D-|-2-2-2---2-2-2-------------------|-2-2-2---2-2-2---------------------|
A-|-0-0-0---0-0-0-------0-------0---|-0-0-0---0-0-0-------0-------0-----|
E-|---------------------------------|-----------------------------------|
    pm-----------|      pm      pm    pm-----------|      pm------------|      pm


   Riff M                                                   End Riff M
E-|---------------------------------|-----------------------------------|
B-|-----------------0h1-----0h1-----|-----------------0h1-----0h1-------|
G-|---------------------2-------2---|---------------------2-------2-----|
D-|-2-2-2---2-2-2-------------------|-2-2-2---2-2-2---------------------|
A-|-0-0-0---0-0-0-------------------|-0-0-0---0-0-0---------------------|
E-|---------------------------------|-----------------------------------|
    pm-----------|                     pm-------------------------------|


   Riff N                                                   End Riff N
E-|---------------------------------|---------------------------------|
B-|-0h1-----0h1-----0h1-----0h1-----|-0h1-----0h1-----0h1-----0h1-----|
G-|-----2-------2-------2-------2---|-----2-------2-------2-------2---|
D-|---------------------------------|---------------------------------|
A-|---------------------------------|---------------------------------|
E-|---------------------------------|---------------------------------|

   Riff O                 End Riff O
E-|---------------------------------|
B-|-1-------------------------------|
G-|-2-------------------------------|
D-|-2-------------------------------|
A-|---------------------------------|
E-|---------------------------------|
Добавлено: 10.09.2013
Другие материалы по этой песне:
  • Аккорды и текст

Страница создана 10.09.2013
http://primanota.ru/propagandhi/haillie-does-hebron-chords.htm
Привет, Гость.
Предлагаем пройти революционный курс по гитаре.
Подарок от PrimaNota.Ru, забирай!