PrimaNota.ru - самый крупный в мире бесплатный архив песенных текстов, аккордов, табулатур и нот


Propagandhi - Gifts - таба, видео

Регистрация Запомнить меня
Войти через:  Facebook Google Twitter Vk Yandex Mail.ru

Propagandhi - Gifts - таба, видео

Печатать
Просмотров: 101
Уроки эстрадного вокала в Санкт-Петербурге
Авторы текста: John K. Samson
Gifts
Propagandhi
Less Talk, More Rock


Focus on the lower strings to make it sound more rock-ish. You can also use this tab for acoustic


Chords:

A B5 D F#5 G

[Verse]

D                                 G
Wake up, coughing, tired, with my face in my hands,
  B5                          A        G
staring at the window as the sunlight demands action.
D                                A
All the energy it takes to close these bedroom blinds.
D                               G
Wrote this selfish sadness on a bathroom wall,
      B5                    A
spent half the span of some lost culture's rise and fall,
   G                D              A
but I'm as clueless as a drooling four year old.

e|-----------|
B|-----------|
G|-----------|
D|-----------|
A|-5-4-5-4---|
E|-----------|

[Prechorus]

B5           G               A
Still hoping I might find the capacity
B5           G               A
to let you know I know you're lonely.


[Chorus]

e|---5-------5--------5------|
B|-----7-------7-------7-----|
G|-------7--6-----6-7----7---|
D|-0-------------------------|
A|---------------------------|
E|---------------------------|

So here's the last call for regrets,

e|---5----------------|
B|-----5-------8-8-8--|
G|-6 ----6-----7-7-7--|
D|-------------5-5-5--|
A|--------------------|
E|--------------------|

a final slow dance through

e|--------------|
B|--------------|
G|------0-2-2-2-|
D|----4---2-2-2-|
A|--5-----2-2-2-|
E|--------------|

the days that we all hold on to.

[Repeat chorus]

Here's the promises I've made, tied too tight to undo.

An unwrapped gift from me to you.


[verse]

D                              G
All the slightly insane on the 18 North Main,
  B5                          A
reaching for a small-town downtown, night rain,
G                            D             A
nothing I could say could be worth saying anyway today.
D                               G
Like “Hey, whatever happened to what's that guys' name?”,
    B5                       A                G
we get a little older and it looks the same: askance.
           D               A
Excuse my failing sense of humour.

e|-----------|
B|-----------|
G|-----------|
D|-----------|
A|-5-4-5-4---|
E|-----------|

Prechorus

Chorus


Then last part (after the bass) goes like this:

D A B5 F#5 G F#5 G A (x2)

[Outro]

e|------------------------------------------------------------------------|
B|------------------------------------------------------------------------|
G|-11-11-11-11-9-9-9-9-11-11-11-11-9-9-9-9-9-11-12-12-12-9-11-12-12-11-11-|
D|--0--0--0--0-0-0-0-0--0--0--0--0-0-0-0-0-0--0--0--0--0-0--0--0--0--0--0-|
A|------------------------------------------------------------------------|
E|------------------------------------------------------------------------|

e|------------------------------------------------------------------------|
B|------------------------------------------------------------------------|
G|-11-11-11-11-9-9-9-9-11-11-11-11-9-9-9-9-9-11-12-12-12-9-11-12-12-11-11-|
D|--0--0--0--0-0-0-0-0--0--0--0--0-0-0-0-0-0--0--0--0--0-0--0--0--0--0--0-|
A|------------------------------------------------------------------------|
E|------------------------------------------------------------------------|

D
Добавлено: 06.06.2013
Другие материалы по этой песне:
  • Аккорды и текст

Страница создана 06.06.2013
http://primanota.ru/propagandhi/gifts-chords.htm
Привет, Гость.
Предлагаем пройти революционный курс по гитаре.
Подарок от PrimaNota.Ru, забирай!