PrimaNota.ru - самый крупный в мире бесплатный архив песенных текстов, аккордов, табулатур и нот


Propagandhi - Fuck The Border - текст песни, таба, видео

Регистрация Запомнить меня
Войти через:  Facebook Google Twitter Vk Yandex Mail.ru

Propagandhi - Fuck The Border - текст песни, таба, видео

Печатать
Просмотров: 73
Fuck the border- Propagandhi

truly the greatest song in the universe to party to.
next to tv party by black flag...

dropped d tuning 
EBGDAD

Intro:
e|-----------------|
b|-----------------|
g|-----------------|
d|-2-2-2-2-2-//////|
a|-2-2-2-2-2-//////|
d|-2-2-2-2-2-//////|

Verse:
e|-------------------------------|
b|-------------------------------|
g|-8/9-9-9-9---------------------|
d|-x/x-x-x-x-7H8-8-8-5H7-7-7-7-7-| x2
a|-6/7-7-7-7-7H8-8-8-5H7-7-7-7-7-|
d|-----------7H8-8-8-5H7-7-7-7-7-|

e|-------------------------|
b|-------------------------|
g|-7-7-7-------------------|
d|-x-x-x-8-8-8-5-5-5-5-5-5-| x2
a|-5-5-5-8-8-8-5-5-5-5-5-5-|
d|-------8-8-8-5-5-5-5-5-5-|

e|-------------------------------|
b|-------------------------------|
g|-8/9-9-9-9---------------------|
d|-x/x-x-x-x-7H8-8-8-5H7-7-7-7-7-| x2
a|-6/7-7-7-7-7H8-8-8-5H7-7-7-7-7-|
d|-----------7H8-8-8-5H7-7-7-7-7-|

Pre-chorus:
e|--------------------------------|
b|--------------------------------|
g|-7-77777-----------------8-8888-|
d|-7-77777-8-888888-8-8888-7-7777-| x2
a|-5-55555-8-888888-6-6666-6-6666-|
d|---------7-777777-5-5555--------|
PM   .....   ......   ....   ....

Chorus:
e|----------------|
b|----------------|
g|-777------------|
d|-666-888-888888-| x2
a|-555-888-666666-|
d|-----777-555555-|

Pre-verse:
e|-------------------------------|
b|-------------------------------|
g|-8/9-9-9-9---------------------|
d|-x/x-x-x-x-7H8-8-8-5H7-7-7-7-7-| x2
a|-6/7-7-7-7-7H8-8-8-5H7-7-7-7-7-|
d|-----------7H8-8-8-5H7-7-7-7-7-|

Verse:
e|-----------------------|
b|-----------------------|
g|-8------8-xxxx-8////-8-|
d|-7------7-xxxx-7////-7-|
a|-6------6-xxxx-6////-6-|
d|-----------------------|

e|-------------------------------|
b|-------------------------------|
g|-8/9-9-9-9---------------------|
d|-x/x-x-x-x-7H8-8-8-5H7-7-7-7-7-| x2
a|-6/7-7-7-7-7H8-8-8-5H7-7-7-7-7-|
d|-----------7H8-8-8-5H7-7-7-7-7-|

Chorus:
e|----------------|
b|----------------|
g|-777------------|
d|-666-888-888888-| x4
a|-555-888-666666-|
d|-----777-555555-|

end on this 
e|---|
b|---|
g|-7-|
d|-6-|
a|-5-|
d|---|
Добавлено: 10.11.2013
Другие материалы по этой песне:
  • Аккорды и текст

Страница создана 25.07.2012
http://primanota.ru/propagandhi/fuck-the-border-chords.htm
Привет, Гость.
Предлагаем пройти революционный курс по гитаре.
Подарок от PrimaNota.Ru, забирай!