PrimaNota.ru - самый крупный в мире бесплатный архив песенных текстов, аккордов, табулатур и нот


Propagandhi - Dear Coachs Corner - таба, видео

Регистрация Запомнить меня
Войти через:  Facebook Google Twitter Vk Yandex Mail.ru

Propagandhi - Dear Coachs Corner - таба, видео

Печатать
Просмотров: 98
Tuning: Eb


Intro part 1 x2 (distotion)
eb|---------------------------------------------------------------------------|
Bb|---------------------------------------------------------------------------|
Gb|--9-7-9-----9-7-12-12-----9-7-9-15-15--9-7-9-----9-7-12-12-----9-7-9-------|
Db|--9-7-9-----9-7-12-12-----9-7-9-15-15--9-7-9-----9-7-12-12-----9-7-9-8-8---|
Ab|--7-5-7-xxx-7-5-10-10-xxx-7-5-7-13-13--7-5-7-xxx-7-5-10-10-xxx-7-5-7-8-8---|
Eb|---------------------------------------------------------------------6-6---|

Intro part 2 (distortion)
eb|---------------------------------------------------------------------------|
Bb|---------------------------------------------------------------------------|
Gb|---------------------------------------------------------------------------|
Db|---------------------------------------------------------------------------|
Ab|-12-11-14-12-11-12-11-10-14-12-11-12-11-10-14-12-11-12-11-10-14-12-14-15\--|
Eb|-10--9-12-10--9-10--9--8-12-10--9-10--9--8-12-10--9-10--9--8-12-10-12-13\--|

Verse x4 (clean)
eb|------------------------------------------------------------------------------------|
Bb|------------------------------------------------------------------------------------|
Gb|-99-11-11-11-12-12-12-11-11-11-99-11-11-11-12-12-12-11-11-11-7-7-7-7-5-5-5-5-22-----|
Db|-99--9--9--9--9--9--9--9--9--9-99--9--9--9--9--9--9--9--9--9-7-7-7-7-5-5-5-5-22-----|
Ab|-77--7--7--7--7--7--7--7--7--7-77--7--7--7--7--7--7--7--7--7-5-5-5-5-3-3-3-3-00-----|
Eb|------------------------------------------------------------------------------------|

Chorus part 1 x2 (distortion)
eb|-2-2-----------2-2-----------2-2-----3--2-------------------------------|
Bb|-3-3-----------3-3-----------3-3--2--3--3-------------------------------|
Gb|-2-2-----------2-2-----------2-2--2--0--2-------------------------------|
Db|-0-0--2-2-2-2--0-0--2-2-2-2--0-0--2--0--0-------------------------------|
Ab|------2-2-2-2-------2-2-2-2-------0--2----------------------------------|
Eb|------0-0-0-0-------0-0-0-0----------3----------------------------------|

Chorus part 2 x2 (distortion)
eb|--------------0---------------------------------------------------------|
Bb|--------------1---------------------------------------------------------|
Gb|----------2---0---------------------------------------------------------|
Db|--2---4---2---2---------------------------------------------------------|
Ab|--2---4---0---3---------------------------------------------------------|
Eb|--0---2-----------------------------------------------------------------|

Post Chorus (clean)
eb|------------------------------------------------------------------------|
Bb|------------------------------------------------------------------------|
Gb|-9-7-5-5-5-5-------9-7-5------------------------------------------------|
Db|-9-7-5-5-5-5--x3---9-7-5------------------------------------------------|
Ab|-7-5-3-3-3-3-------7-5-3------------------------------------------------|
Eb|------------------------------------------------------------------------|

Verse x2
Chorus parts 1,2
End second Chorus with
eb|--0-0-0-0-0---2-2-2-2-2-------------------------------------------------|
Bb|--1-1-1-1-1---3-3-3-3-3-------------------------------------------------|
Gb|--0-0-0-0-0---2-2-2-2-2-------------------------------------------------|
Db|--2-2-2-2-2---0-0-0-0-0-------------------------------------------------|
Ab|--3-3-3-3-3-------------------------------------------------------------|
Eb|------------------------------------------------------------------------|

Bridge (distortion)
eb|-----------------------------------2------------------------------------|
Bb|-----------------------------------3------------------------------------|
Gb|-9-7-5-5-5-5-------7-7-7-7-5-5-5-5-2------------------------------------|
Db|-9-7-5-5-5-5--x4---7-7-7-7-5-5-5-5-0------------------------------------|
Ab|-7-5-3-3-3-3-------5-5-5-5-3-3-3-3--------------------------------------|
Eb|------------------------------------------------------------------------|

last verse (distortion)
eb|-------------------------------------------------------------------------|
Bb|-------------------------------------------------------------------------|
Gb|-99-11-11-11-12-12-12-11-11-11-99-11-11-11-12-12-12-11-11-11--7-7-7-7----|
Db|-99--9--9--9--9--9--9--9--9--9-99--9--9--9--9--9--9--9--9--9--7-7-7-7----|
Ab|-77--7--7--7--7--7--7--7--7--7-77--7--7--7--7--7--7--7--7--7--5-5-5-5----|
Eb|-------------------------------------------------------------------------|

eb|-------------------------------------------------------------------------|
Bb|-------------------------------------------------------------------------|
Gb|-2-2-2-2-5-5-5-2------99-11-11-11-12-12-12-11-11-11--2-2-2-2-5-5-5-2-----|
Db|-2-2-2-2-5-5-5-2--x2--99--9--9--9--9--9--9--9--9--9--2-2-2-2-5-5-5-2--x2-|
Ab|-0-0-0-0-3-3-3-0------77--7--7--7--7--7--7--7--7--7--0-0-0-0-3-3-3-0-----|
Eb|-------------------------------------------------------------------------|

outro (clean)
eb|----2-0-0-0-0-0-0-------------------------------------------------------|
Bb|----3-1-1-1-1-1-1-------------------------------------------------------|
Gb|--1-2-0-0-0-0-0-0-------------------------------------------------------|
Db|--2-0-2-2-2-2-2-2-------------------------------------------------------|
Ab|--2---3-3-3-3-3-3-------------------------------------------------------|
Eb|--0---------------------------------------------------------------------|
Добавлено: 29.09.2013
Другие материалы по этой песне:
  • Аккорды и текст

Страница создана 29.09.2013
http://primanota.ru/propagandhi/dear-coachs-corner-chords.htm
Привет, Гость.
Предлагаем пройти революционный курс по гитаре.
Подарок от PrimaNota.Ru, забирай!