PrimaNota.ru - самый крупный в мире бесплатный архив песенных текстов, аккордов, табулатур и нот


Propagandhi - Back In The Motor League - таба, видео

Регистрация Запомнить меня
Войти через:  Facebook Google Twitter Vk Yandex Mail.ru

Propagandhi - Back In The Motor League - таба, видео

Печатать
Просмотров: 102
Propagandhi - Back in the Motor League

Tabbed by: Savas Varadas (samhain_138@hotmail.com)

Tuning: Standard (E A D G B E)

Follow along with song for rythmn

Intro
E|-------------------------------------------------------------------||
B|-------------------------------------------------------------------||
G|-----------------------11-11-11-9----------------------------------||
D|-11-11-------------11--11-11-11-9-----------11-11-------------11---||
A|-11-11-------------11-------------------7---11-11-------------11---||
E|-9--9--9-9-9-9-9-9-9--------------9-7h9-----9--9--9-9-9-9-9-9-9----||

E|-------------------------------------------------------------------||
B|-------------------------------------------------------------------||
G|-11-11-11-9-11^12-11-9---------------------------------------------||
D|-11-11-11-9-11^12-11-9-11------------------------------------------||
A|-----------------------11------------------------------------------||
E|-----------------------9-------------------------------------------||

Verse
E|-------------------------------------------------------------------||
B|-------------------------------------------------------------------||
G|-----------------------11-11-11-9-----------------11-11-11-9-11^12-||
D|--(vocal break)--------11-11-11-9-----------11----11-11-11-9-11^12-||
A|----------------------------------------7---11---------------------||
E|----------------------------------9-7h9-----9----------------------||

E|-----------------------------------------------------------4---4-4-||
B|-----------------------------------------------------------4---4-4-||
G|-11-9-------11-11-11-9--------------11-11-11-9-11^12-11-9--6---6-6-||
D|-11-9-11----11-11-11-9----------11--11-11-11-9-11^12-11-9--6---6-6-||
A|------11---------------------7--11-------------------------4---4-4-||
E|------9----------------9-7h9----9----------------------------------||

Chorus
E|-------------------------9------------4----------------------------||
B|-------------------------9----9-------4----------------------------||
G|-9---8-9--9---8-9--------11-----11----6--(repeat twice)------------||
D|-9---9-9--9---9-9----9---11--------9--6----------------------------||
A|-7---6-7--7---6-7----9---9------------4----------------------------||
E|---------------------7---------------------------------------------||

E|-------------------------9-----------------------------------------||
B|-------------------------9----9------------------------------------||
G|-9---8-9--9---8-9--------11-----11---------------------------------||
D|-9---9-9--9---9-9----9---11--------9--9/11---11\9---9-8------------||
A|-7---6-7--7---6-7----9---9------------9/11---11\9---9-9------------||
E|---------------------7----------------7/9----9-\7---7-6------------||

Verse 2
E|-------------------------------------------------------------------||
B|-------------------------------------------------------------------||
G|--------9---9-8------------------9---9-11-----------------------9--||
D|-11---9-9-9-9-9--7-7-----7-7---9-9-9-9-11---11-11-----11-11---9-9--||
A|-11---9-7-9-7-6--7-7-----7-7---9-7-9-7-9----11-11-----11-11---9-7--||
E|-9----7-7-7-7----5-5-5-5-5-5---7-7-7-7------9--9--9-9-9--9----7-7--||

E|------------------------------------------4----4-4-----------------||
B|------------------------------------------4----4-4-----------------||
G|---9-8-----------------9---9-11-----------6----6-6-----------------||
D|-9-9-9--7-7-----7-7--9-9-9-9-11--(repeat)-6----6-6-----------------||
A|-9-7-6--7-7-----7-7--9-7-9-7-9------------4----4-4-----------------||
E|-7-7----5-5-5-5-5-5--7-7-7-7---------------------------------------||

Chorus
E|-------------------------9------------4----||
B|-------------------------9----9-------4----||
G|-9---8-9--9---8-9--------11-----11----6----||
D|-9---9-9--9---9-9----9---11--------9--6----||
A|-7---6-7--7---6-7----9---9------------4----||
E|---------------------7---------------------||

E|-------------------------9-----------------------------------------||
B|-------------------------9----9------------------------------------||
G|-9---8-9--9---8-9--------11-----11---------------------------------||
D|-9---9-9--9---9-9----9---11--------9--9/11---11\9---9-8------------||
A|-7---6-7--7---6-7----9---9------------9/11---11\9---9-9---7-7-7-7--||
E|---------------------7----------------7/9----9-\7---7-6---5-4-5-4--||

E|----------------------------------4------------4--------4----------||
B|----------------------------------4--------------------------------||
G|--------------------------14------6--------------6----6------------||
D|------9/11---11\9---9-8---14------6-------------------------9--11--||
A|-7-7--9/11---11\9---9-9---12------4-------------------------9--11--||
E|-5-4--7/9----9-\7---7-6-------------------------------------7--9---||

Bridge
E|-------------------------------------------------------------------||
B|-------------------------------------------------------------------||
G|------------9-8----------9-11--------------------------------9-8---||
D|-11---9-----9-9--7-7---9-9-11---(repeat three times)-11---9--9-9---||
A|-11---9-----7-6--7-7---9-7-9-------------------------11---9--7-6---||
E|-9----7----------5-5---7-----------------------------9----7--------||

E|-----------------------||
B|-----------------------||
G|-----------------------||
D|-7-7---9-----11-11-----||
A|-7-7---9-----11-11-----||
E|-5-5---7-----9--9------||

Solo
E|-------------------------------------------------------------------||
B|-14------14-----14-------------14h17p14--------14h17p14--------14h-||
G|-16^18---16^18--16^18----16^18-----------16^18-----------16^18-----||
D|-------------------------------------------------------------------||
A|-------------------------------------------------------------------||
E|-------------------------------------------------------------------||

E|-------------------------------------------------------------------||
B|-17p14--------14h17p14--------14h17p14--------14h17p14--17^19v17---||
G|--------16^18-----------16^18-----------16^18----------------------||
D|-------------------------------------------------------------------||
A|-------------------------------------------------------------------||
E|-------------------------------------------------------------------||

E|-------9-------------9-------------9-------------9-------------9---||
B|---------12p9----------12p9----------12p9----------12p9------------||
G|-11^13---------11^13---------11^13---------11^13---------11^13-----||
D|-------------------------------------------------------------------||
A|-------------------------------------------------------------------||
E|-------------------------------------------------------------------||

E|---------------------||
B|-12p9----------------||
G|--------11^13v11-9---||
D|---------------------||
A|---------------------||
E|---------------------||

Outro
E|-------------------------------------------------------------------||
B|-------------------------------------------------------------------||
G|-9-9-9-9-8-9-9--------------------9--------------------------------||
D|-9-9-9-9-9-9-9--x8--11\9----9\7---9-11\----------------------------||
A|--------------------11\9----9\7---7-11\----------------------------||
E|--------------------9-\7----7\5-----9-\----------------------------||
Добавлено: 06.10.2013
Другие материалы по этой песне:
  • Аккорды и текст

Страница создана 06.10.2013
http://primanota.ru/propagandhi/back-in-the-motor-league-chords.htm
Привет, Гость.
Предлагаем пройти революционный курс по гитаре.
Подарок от PrimaNota.Ru, забирай!