PrimaNota.ru - самый крупный в мире бесплатный архив песенных текстов, аккордов, табулатур и нот


Propagandhi - Anti-manifesto - таба, видео

Регистрация Запомнить меня
Войти через:  Facebook Google Twitter Vk Yandex Mail.ru

Propagandhi - Anti-manifesto - таба, видео

Печатать
Просмотров: 110
Уроки эстрадного вокала в Санкт-Петербурге
Авторы: Chris Hannah

Just an update on Savas Varadas's tab (samhain_138@hotmail.com), he got it almost 
right except for a few parts in the intro and the outro. Beave from Propagandhi showed me how 
do this song at the West End Cultural Center, so I know this is 100% on.

Intro
E|-----------------------------------------------7-7--7--7--8--7--8--||
B|-----------------------------------------------8-8--8--8--8--8--8--||
G|---------------4------------------------12-----7-7--7--7--7--7--7--||
D|-5-(5)(5)(5)-5-4--(repeat three times)--12-------------------------||
A|-5-----------5-2------------------------10-------------------------||
E|-3-----------3-----------------------------------------------------||

E|-0-3-5-3--2-2-2-2---12-12-15-12-15-12-15-12---2-2-3-2--------------||
B|-5-5-5-5--5-5-5-5---13-13-13-13-13-13-13-13---3-3-3-3---7-7-7--5---||
G|-4-4-4-4--4-4-4-4---12-12-12-12-12-12-12-12---2-2-2-2---7-7-7--5---||
D|--------------------------------------------------------5-5-5--3---||
A|-------------------------------------------------------------------||
E|-------------------------------------------------------------------||

E|--7-7--7--7--8--7--8--7---0-3-5-3--2-2-2-2----12-12-15-12-15-12-15-||
B|--8-8--8--8--8--8--8--8---5-5-5-5--5-5-5-5----13-13-13-13-13-13-13-||
G|--7-7--7--7--7--7--7--7---4-4-4-4--4-4-4-4----12-12-12-12-12-12-12-||
D|-------------------------------------------------------------------||
A|-------------------------------------------------------------------||
E|-------------------------------------------------------------------||

E|-12---2-2-3-2------------------------------------------------------||
B|-13---3-3-3-3--7-7-7--5--------------------------------------------||
G|-12---2-2-2-2--7-7-7--5--------------------------------------------||
D|---------------5-5-5--3--------------------------------------------||
A|-------------------------------------------------------------------||
E|-------------------------------------------------------------------||

Verse
E|-3-----7------------------------------------3-----7----------------||
B|-3-----7------------------------------------3-----7----------------||
G|-4---9-9------------7---7-5-----------------4---9-9---5--7---------||
D|-5---9-9--9\---7----7---7-5--(times three)--5---9-9---5--7----2----||
A|-5---7---------7----5---5-3-----------------5---7-----3--5----2----||
E|-3-------------5----------------------------3---------------0-0----||

E|-------------------------------------------------------------------||
B|-------------------------------------------------------------------||
G|---9--------9---5---7----------------------------------------------||
D|-2/9----2-2/9---5---7----------------------------------------------||
A|-2/7----2-2/7---3---5----------------------------------------------||
E|------0-0----------------------------------------------------------||

Verse 2 (palm muting patterns vary)
E|-------------------------------------------------------------------||
B|-------------------------------------------------------------------||
G|-----------5----------5-----------------5----------5---------------||
D|-5---4-5---5----------5---5----4----5---5----------5--(times three)||
A|-5---5-5---3--3-3-3-3-3---5----5----5---3--3-3-3-3-3---------------||
E|-3---2-3------------------3--3-2--2-3------------------------------||

E|-------------------------------------------------------------------||
B|-----0-------0-----------------------------------------------------||
G|-------0-------0--5---7--------------------------------------------||
D|---2-------2------5---7--(repeat all of VERSE again)---------------||
A|-0-0-----0-0------3---5--------------------------------------------||
E|-------------------------------------------------------------------||

Interlude
E|-------------------------------------------------------------------||
B|-------------------------------------------------------------------||
G|-----4-4-0-----5-4---------7---7-7-----5-5-4-----------------------||
D|---5-4-4-4-----5-5-2-2-----7-4-7-7-----5-5-5-0--(times seven)------||
A|---5-2-2-2---3-3-2-3-3---5-5-5-5-5---3-3-3-2-0---------------------||
E|-3-3---------------------------------------------------------------||

E|---------------------------------||
B|--------------------(7)----------||
G|-----4-0-----5-4-------(7)---(5)-||
D|---5-4-4-----5-5-2--------(7)----||
A|---5-2-2---3-3-2-3---------------||
E|-3-3-----------------------------||

Verse 2 variation
E|-------------------------------------------------------------------||
B|-------------------------------------------------------------------||
G|-----------5----------5-----------------5----------5---------------||
D|-5---4-5---5----------5---5----4----5---5----------5---------------||
A|-5---5-5---3--------3-3---5----5----5---3----------3---------------||
E|-3---2-3------------------3--3-2--2-3------------------------------||

Verse 2 variation
E|-------------------------------------------------------------------||
B|-----0-------0-------------------------------7---------------------||
G|-------0-------0--5---7------------------5---7---------------------||
D|---2-------2------5---7--(times three)---5---7---------------------||
A|-0-0-----0-0------3---5------------------3---5---------------------||
E|-------------------------------------------------------------------||

Interlude variation
E|-------------------------------------------------------------------||
B|-------------------------------------------------------------------||
G|-----4-4-0-----5-4---------7---7-7-----5-5-4-----------------------||
D|---5-4-4-4-----5-5-2-2-----7-4-7-7-----5-5-5-0---------------------||
A|---5-2-2-2---3-3-2-3-3---5-5-5-5-5---3-3-3-2-0---------------------||
E|-3-3---------------------------------------------------------------||

E|-------------------------------------------------------------------||
B|-------------------------------------------------------------------||
G|-----4-4-0-----5-4---------7---7-7---------0h5h7-------------------||
D|---5-4-4-4-----5-5-2-2-----7-4-7-7---0h5h7-------0h5h7-------------||
A|---5-2-2-2---3-3-2-3-3---5-5-5-5-5---------------------5-----------||
E|-3-3---------------------------------------------------------------||

Verse 3
E|-------------------------------------------------------------------||
B|-------------------------------------------------------------------||
G|-12----11-12-----7-------7-----9----9---5--------------------------||
D|-12----12-12-----4-------4---2-9--2-9---5--(times two)-------------||
A|-10--9-9--10---5-5---5-5-5---2-7--2-7---3--------------------------||
E|-----------------------------0----0--------------------------------||

Solo
E|-------------------------------------------------------------------||
B|-10-----12-----10-----12-----------10-----------------10-----------||
G|----12-----12-----12-----12--10-12----12-11-12--10-12----12-11-12--||
D|-------------------------------------------------------------------||
A|-------------------------------------------------------------------||
E|-------------------------------------------------------------------||

E|----------------10----12-----------10------------------------------||
B|-------------------13----13-----------13-12-10---------------------||
G|(--9---)--11-12--------------11-12-------------12--(times two)-----||
D|(2-9--2)-----------------------------------------------------------||
A|(2-7--2)-----------------------------------------------------------||
E|(0----0)-----------------------------------------------------------||

Outro
E|--7-7--7--7--8--7--8--7---0-3-5-3--2-2-2-2----12-12-15-12-15-12-15-||
B|--8-8--8--8--8--8--8--8---5-5-5-5--5-5-5-5----13-13-13-13-13-13-13-||
G|--7-7--7--7--7--7--7--7---4-4-4-4--4-4-4-4----12-12-12-12-12-12-12-||
D|-------------------------------------------------------------------||
A|-------------------------------------------------------------------||
E|-------------------------------------------------------------------||

E|-12---2-2-3-2------------------------------------------------------||
B|-13---3-3-3-3--7-7-7--5--------------------------------------------||
G|-12---2-2-2-2--7-7-7--5--------------------------------------------||
D|---------------5-5-5--3--2-----------------------------------------||
A|-------------------------2-----------------------------------------||
E|-------------------------0-----------------------------------------||
Добавлено: 27.10.2013
Другие материалы по этой песне:
  • Аккорды и текст

Страница создана 27.10.2013
http://primanota.ru/propagandhi/anti-manifesto-2-chords.htm
Привет, Гость.
Предлагаем пройти революционный курс по гитаре.
Подарок от PrimaNota.Ru, забирай!