PrimaNota.ru - самый крупный в мире бесплатный архив песенных текстов, аккордов, табулатур и нот


Propagandhi - A Speculative Fiction - таба, видео

Регистрация Запомнить меня
Войти через:  Facebook Google Twitter Vk Yandex Mail.ru

Propagandhi - A Speculative Fiction - таба, видео

Печатать
Просмотров: 97
Авторы: Todd Kowalski, Chris Hannah, Jord Samolesky

This is a correction of Savas Varadas' tab of the song. The only parts I found
wrong were the intro and the pre-verse, so I just fixed them. 

-Regulartrite   (Regulartrite@hotmail.com)


Follow along with the song for the rythmn

Intro (clean)
E|-------------------------------------------------------------------||
B|--8--7-----------------8--7------7h8p7---------8--7----------------||
G|--9--7-----------------9--7-------------9p7----9--7----------------||
D|--9--7-------4-4-5-----9--7--------------------9--7---4-4-5--------||
A|--7--------------------7-----------------------7-------------------||
E|-------------------------------------------------------------------||

              (distortion)
E|-------------------------------------------------------------------||
B|-------------------------------------------------------------------||
G|----------------------3--------------------------------------------||
D|--5-5-4------5-2------3-2------------------------------------------||
A|-------------5-2------1-2------------------------------------------||
E|-------------3-0--------0------------------------------------------||


Breakdown (light distortion) Play twice
E|-------------------------------------------------------------------||
B|------------------3-------3----------------------------------------||
G|---0-------0--------0---0---0--------------------------------------||
D|-----4-5-----4-5---------------------------------------------------||
A|-3--------------------3-------3------------------------------------||
E|-------------------------------------------------------------------||


Pre-verse (distortion)
E|-------------------------------------------------------------------||
B|-------------------------------------------------------------------||
G|---------------3------------------3--------------------------------||
D|-5-2-----5-2---3-2----5-2---5-2---3-2---(breakdown pattern)--------||
A|-5-2-----5-2---1-2----5-2---5-2---1-2------------------------------||
E|-3-0-----3-0-----0----3-0---3-0-----0------------------------------||

E|---------------------------------------7---------------------------||
B|----------------------------8p7------------------------------------||
G|-------------3-----------7--------7h9-------7----------------------||
D|-5-2---5-2---3-2---5-2----------------------7----------------------||
A|-5-2---5-2---1-2---5-2----------------------5----------------------||
E|-3-0---3-0-----0---3-0---------------------------------------------||

Verse 1
E|-------------------------------------------------------------------||
B|-------------------------------------------------------------------||
G|-----------------------------------------------------------3-------||
D|-(break down pattern)--(pre-verse pattern)-x2--5-2---5-2---3-2--5-2||
A|-----------------------------------------------5-2---5-2---1-2--5-2||
E|-----------------------------------------------3-0---3-0-----0--3-0||

Verse 2
E|--7-------------7--------------------------------------------------||
B|--8-------------8-------7---------------------8-7------------------||
G|--9-------------9-------7----5-----------5----7-7--(repeat)--------||
D|--9-------------9-------7----5-----------5----7-7------------------||
A|--7--(7-7-7-7)--7-------5----3-(3-3-3-3)-3----5-5------------------||
E|-------------------------------------------------------------------||

E|-------------------------------------------------------------------||
B|-------------------------------------------------------------------||
G|---------------3--------------7-9-9-9-9-9-9-9-----7-9-9-9-9-9-9-9--||
D|-5-2----5-2----3-2----5-2------------------------------------------||
A|-5-2----5-2----1-2----5-2------------------------------------------||
E|-3-0----3-0------0----3-0------------------------------------------||

E|-------------------------------------------------------------------||
B|-------------------------------------------------------------------||
G|-7-9-9-9-9-9-9-9-----7-9-9-9-9-9-9-9-----7h9p7---------------------||
D|-----------------------------------------------9-7h9p7-------------||
A|-------------------------------------------------------7-----------||
E|-------------------------------------------------------------------||

Crazy part
E|-------------------------------------------------------------------||
B|-------------------------------------------------------------------||
G|-------------------------------------------------------------------||
D|-2-------2-----------2-2-------2-------2-------8---7---------------||
A|-2-------2-----------2-2-------2-------2-------8---7---------------||
E|-0-(0-0)-0-(0-0-0-0)-0-0-(0-0)-0-(0-0)-0-(0-0)-6---5---------------||

E|-------------------------------------------------------------------||
B|-------------------------------------------------------------------||
G|-------------------------------------------------------------------||
D|-2-------2-----------2-2-------2-------2-------8-7-------(repeat)--||
A|-2-------2-----------2-2-------2-------2-------8-7-----------------||
E|-0-(0-0)-0-(0-0-0-0)-0-0-(0-0)-0-(0-0)-0-(0-0)-6-5-----------------||

E|-------------------------------------------------------------------||
B|-------------------------------------------------------------------||
G|-------------------------------------------------------------------||
D|--8-7-5-7-----8-7-5-2----------------------------------------------||
A|--8-7-5-7-----8-7-5-2----------------------------------------------||
E|--6-5-3-5-----6-5-3-0----------------------------------------------||

Bridge
E|-------------------------------------------------------------------||
B|-------------------------------------------------------------------||
G|-------------------------------------------------------------------||
D|-------------------------------------------------------------------||
A|-------------------------------------------------------------------||
E|-12-0--10-10-12-0--10-10-12-0--12-0--10-10-12-0--10-10-12-0--12--0-||

E|-------------------------------------------------------------------||
B|-------------------------------------------------------------------||
G|-------------------------------------------------------------------||
D|-------------------------------------------------------------------||
A|-------------------------------------------------------------------||
E|-10--0-0-10-0--12-12--0-0--10-10--0-0-10-0---0---10---12--10-10-12-||

E|-------------------------------------------------------------------||
B|-------------------------------------------------------------------||
G|-------------------------------------------------------------------||
D|-------------------------------------------------------------------||
A|-------------------------------------------------------------------||
E|-0--12-0--10-10-12-0--10-10-12-0---12---0---10---0-0-10-0--12-12---||

E|-------------------------------------------------------------------||
B|-------------------------------------------------------------------||
G|-------------------------------------------------------------------||
D|-------------------------------------------------------------------||
A|-------------------------------------------------------------------||
E|-0-0--10-10--0-0-10-0----0-0--10-10-12-0--10-10-12-0---0-0--10-10--||

E|---------------------||
B|---------------------||
G|---------------------||
D|---------------------||
A|---------------------||
E|-12-0--10-10-12-0----||

E|-------------------------------------------------------------------||
B|-------------------------------------------------------------------||
G|-9------0---------9-----9-------9------0---------------------------||
D|-9------0---------9-----9-------9------0---------------------------||
A|-7--10--9---------7--5--7-------7--10--9---------------------------||
E|----0---10-----------0-------------0---10--------------------------||

Nuts
E|-------------------------------------------------------------------||
B|-------------------------------------------------------------------||
G|-------------------------------------------------------------------||
D|-------------------------------------------------------------------||
A|-------------------9--9--------9--9--------------9--9--------9--9--||
E|-pick slide--12-0--10-10-12-0--10-10-12-0--12-0--10-10-12-0--10-10-||

E|-------------------------------------------------------------------||
B|-------------------------------------------------------------------||
G|-------------------------------------------------------------------||
D|-------------------------------------------------------------------||
A|--------10-10-------9--9-------9---------10-10--9--9-------9-------||
E|-12-0---12-12--0-0--10-10--0-0-10-0--0-0-12-12--10-10--0-0-10-0----||

E|-------------------------------------------------------------------||
B|-------------------------------------------------------------------||
G|-------------------------------------------------------------------||
D|-------------------------------------------------------------------||
A|------9--9--------9--9--------------9--9--------9--9---------------||
E|-0-0--10-10-12-0--10-10-12-0--12-0--10-10-12-0--10-10-12-0---------||

E|-------------------------------------------------------------------||
B|-------------------------------------------------------------------||
G|-------------------------------------------------------------------||
D|-------------------------------------------------------------------||
A|-10-10------9--9-------9----------10-10--9--9-------9--------------||
E|-12-12--0-0-10-10--0-0-10-0--0-0--12-12--10-10--0-0-10-0-----------||

Full Chords Again
E|-------------------------------------------------------------------||
B|-------------------------------------------------------------------||
G|-9-----9------9------0------9-----9-----9------0-------------------||
D|-9-----9------9------0------9-----9-----9------0-------------------||
A|-7--5--7------7--10--9------7--5--7-----7--10--9-------------------||
E|----0------------0---10--------0-----------0---10------------------||

E|-------------------------------------------------------------------||
B|-------------------------------------------------------------------||
G|---5------0--------------------------------------------------------||
D|-2-5----2-7--------------------------------------------------------||
A|-2-3----2-5-----------------------9---9----------------------------||
E|-0------0-------(0-0-0-0-0-0-0-0)-10--10---------------------------||

Breakdown Guitar 1
E|-------------------------------------------------------------------||
B|-------------------------------------------------------------------||
G|-7-9-9-9-9-9-9-9---7-9-9-9-9-9-9-9---7-9-9-9-9-9-9-9---7-9-9-9-9-9-||
D|-------------------------------------------------------------------||
A|-------------------------------------------------------------------||
E|-------------------------------------------------------------------||

E|-------------------------------------------------------------------||
B|-------------------------------------------------------------------||
G|-9-9-9---7h9p7-----------------------------------------------------||
D|---------------9-7h9p7---------------------------------------------||
A|-----------------------7-------------------------------------------||
E|-------------------------------------------------------------------||

Breakdown Guitar 2
E|-------------------------------------------------------------------||
B|-------------------------------------------------------------------||
G|--9-9-9-9-9-9-9-9---11-11-11-11-11-11-11-11---12-12-12-12-12-12-12-||
D|-------------------------------------------------------------------||
A|-------------------------------------------------------------------||
E|-------------------------------------------------------------------||

E|-------------------------------------------------------------------||
B|-------------------------------------------------------------------||
G|-12---14-14-14-14-14-14-14-14---16-16-16-16-16-16-16-16------------||
D|-------------------------------------------------------------------||
A|-------------------------------------------------------------------||
E|-------------------------------------------------------------------||

E|-------------------------------------------------------------------||
B|-------------------------------------------------------------------||
G|-------------------------------------------------------------------||
D|-2-------2-----------2-2-------2-------2-------8---7---------------||
A|-2-------2-----------2-2-------2-------2-------8---7---------------||
E|-0-(0-0)-0-(0-0-0-0)-0-0-(0-0)-0-(0-0)-0-(0-0)-6---5---------------||

E|-------------------------------------------------------------------||
B|-------------------------------------------------------------------||
G|-------------------------------------------------------------------||
D|-2-------2-----------2-2-------2-------2-------8-7-----------------||
A|-2-------2-----------2-2-------2-------2-------8-7-----------------||
E|-0-(0-0)-0-(0-0-0-0)-0-0-(0-0)-0-(0-0)-0-(0-0)-6-5-----------------||

E|-------------------------------------------------------------------||
B|-------------------------------------------------------------------||
G|-------------------------------------------------------------------||
D|-2-------2-----------2-2-------2-------2-------8---7---------------||
A|-2-------2-----------2-2-------2-------2-------8---7---------------||
E|-0-(0-0)-0-(0-0-0-0)-0-0-(0-0)-0-(0-0)-0-(0-0)-6---5---------------||

E|-------------------------------------------------------------------||
B|-------------------------------------------------------------------||
G|-------------------------------------------------------------------||
D|-2-------2-----------2-2-------2-------2-------8-7-5-7----8-7-5-2--||
A|-2-------2-----------2-2-------2-------2-------8-7-5-7----8-7-5-2--||
E|-0-(0-0)-0-(0-0-0-0)-0-0-(0-0)-0-(0-0)-0-(0-0)-6-5-3-5----6-5-3-0--||
Добавлено: 02.11.2013
Другие материалы по этой песне:
  • Аккорды и текст

Страница создана 02.11.2013
http://primanota.ru/propagandhi/a-speculative-fiction-chords.htm
Привет, Гость.
Предлагаем пройти революционный курс по гитаре.
Подарок от PrimaNota.Ru, забирай!