PrimaNota.ru - самый крупный в мире бесплатный архив песенных текстов, аккордов, табулатур и нот


Promise Ring - Red Paint - таба, видео

Регистрация Запомнить меня
Войти через:  Facebook Google Twitter Vk Yandex Mail.ru

Promise Ring - Red Paint - таба, видео

Печатать
Просмотров: 72
Title: Red Paint
Album: 30 Degrees Everywhere
Tabbed by: Kris Johansen - krisjohansen@guitarsrule.com

Note: The bridge needs help, not sure about 2nd chord

Verse chords

                Guitar 2 plays this F when gt 1 plays 1st fret F
e---------------|----------------------------------------------------------|
B---------------|----------------------------------------------------------|
G--5------------|--9-------------------------------------------------------|
D--5---7---3--5-|--10------------------------------------------------------|
A--3---7---3--5-|--8-------------------------------------------------------|
E------5---1--3-|----------------------------------------------------------|

      C                           Am
I was sad enough last saturday, I woke you to talk
                         F

but I didnt have much to say

    C                      Am             F
You came to two the cherry cokes, came to coke. (x2)

C              Am                     F
In the morning when the wind is still warm

                     G
and the rivers still following


Chorus Chords
e-----------=-----------------------------------------------------------|
B--0--0--0--0--0--------------------------------------------------------|
G--0--0--0--0--0--------------------------------------------------------|
D--x--x--x--5--5--------------------------------------------------------|
A--3--5--3--2--3--------------------------------------------------------|
E--1--3--5--------------------------------------------------------------|

              F G A C/B
still following

C                                   F G A C/B
The Astor hotel is black in the window

C                               F G A C/B  C
black in the hall since we left separately.


Bridge Chords (2nd chord???. There's a B in there somewhere :) )

e----------------------------------------------------------------------|
B----------------------------------------------------------------------|
G--12--16--9-----------------------------------------------------------|
D----------10----------------------------------------------------------|
A--10--14--8-----------------------------------------------------------|
E----------------------------------------------------------------------|

little lead before last chorus with yelling and screaming and so forth

e----------------------------------------------------------------------|
B----------------------------------------------------------------------|
G------/10-9-----/10-9-------------------------------------------------|
D-------------8--------8-----------------------------------------------|
A----------------------------------------------------------------------|
E----------------------------------------------------------------------|

Lead at end

e----------------------------------------------------------------------|
B--10---5---12--8--12-13p12-13p12-13p12--12-12-12-13-------------------|
G----------------------------------------------------------------------|
D----------------------------------------------------------------------|
A----------------------------------------------------------------------|
E----------------------------------------------------------------------|

and very end

e----------------------------------------------------------------------|
B--13p12-13p12-13p12-13p12-13p12-13p12-13p12-13/-----------------------|
G----------------------------------------------------------------------|
D----------------------------------------------------------------------|
A----------------------------------------------------------------------|
E----------------------------------------------------------------------|
Добавлено: 11.08.2013
Другие материалы по этой песне:
  • Аккорды и текст

Страница создана 11.08.2013
http://primanota.ru/promise-ring/red-paint-chords.htm
Привет, Гость.
Предлагаем пройти революционный курс по гитаре.
Подарок от PrimaNota.Ru, забирай!