PrimaNota.ru - самый крупный в мире бесплатный архив песенных текстов, аккордов, табулатур и нот


Promise Ring - My Firetown Flame - таба, видео

Регистрация Запомнить меня
Войти через:  Facebook Google Twitter Vk Yandex Mail.ru

Promise Ring - My Firetown Flame - таба, видео

Печатать
Просмотров: 89
Title: My Firetown Flame
Album: 30 degrees Everywhere
Tabbed by: Kris Johansen - krisjohansen@guitarsrule.com
Tuning: EGCGCE


Guitar 1 - Intro

     x4                x4    
e---------0-0--|---------0-0--|
C---------0-0--|---------0-0--|
G---5p4p0-----:|---5p4p0-----:|
C-------------:|-------------:|
G---5----------|--------------|
E--------------|---5----------|


Guitar 1 - Verse
 
     x2                x2    
e---------0-0--|---------0-0--|
C---------0-0--|---------0-0--|
G---5p4p0-----:|---5p4p0-----:|
C-------------:|-------------:|
G---5----------|--------------|
E--------------|---5----------|

Guitar 2 - Verse


             x4          x4      Sometimes this creeps in as well so.
                                 the other bit is only 3x.      
e------11-11-11-11-|--0-0-0-0--|-----0-0-0---------------------------|
C------10-10-10-10-|--0-0-0-0--|-----0-0-0---------------------------|
G-------0--0--0--0-|--0-0-0-0--|-7/9-9-9-9---------------------------|
C------------------|--7-7-7-7--|-------------------------------------|
G------------------|-----------|-------------------------------------|
E------------------|-----------|-------------------------------------|


Break Down 00:53

Guitar 1. (no guitar 2). Rhythm is quite random.

       x2
e---------------|------------------------------------------------------|
C---------------|------------------------------------------------------|
G--0--0--5p4-0--|-5p4p0--7--7-7-7--5-/--10--10-------------------------|
C--0--0--0---0--|-0------0--0-0-0--0-/---0---0-------------------------|
G--5--5--5---5--|-0------0--0-0-0--5-/--10--10-------------------------|
E---------------|-5------7--7-7-7--------------------------------------|

Band returns for this next part. 01:06

e----------------------------------------------------------------------|
C----------------------------------------------------------------------|
G--------5----------7-----------7----10--------------------------------|
C--------0----------0-----------0-----0--------------------------------|
G--5p4---5----5p4---7----5p4----0----10--------------------------------|
E------3---------3-----------3--7--------------------------------------|

just before the 'heavy bit' (damn this is hard to hear :( )

"you say your summers over..."

e----------------------------------------------------------------------|
C------------11--12----------------------------------------------------|
G---10--12----0---0----------------------------------------------------|
C------------11--12----------------------------------------------------|
G---10--12-------------------------------------------------------------|
E----------------------------------------------------------------------|

Guitar 2
        
e-0--------------------------------------------------------------------|
C-0-over and over------------------------------------------------------|
G-5--------------------------------------------------------------------|
C----------------------------------------------------------------------|
G----------------------------------------------------------------------|
E----------------------------------------------------------------------|


heavy 'chorus' part

     4x                        * 
e------------|-------------|--------------------------------------------|
C------------|--------0----|--------------------------------------------|
G--0-0-0-0---|---5p4--0----|---0----12----------------------------------|
C--0-0-0-0---|--------0----|---0-----0----------------------------------|
G--0-0-0-0---|-------------|---5----12----------------------------------|
E--1-1-1-1---|-------------|--------------------------------------------|
                              guitar 2 holds * while guitar 1
                                goes up to the other. argh.

out of chorus

e----------------------------------------------------------------------|
C----------0-----------------------------------------------------------|
G------5p4-0--over and over--------------------------------------------|
C----------0-----------------------------------------------------------|
G----------------------------------------------------------------------|
E----------------------------------------------------------------------|

from there you repeat the verse and chorus. 

Добавлено: 02.10.2013
Другие материалы по этой песне:
  • Аккорды и текст

Страница создана 02.10.2013
http://primanota.ru/promise-ring/my-firetown-flame-chords.htm
Привет, Гость.
Предлагаем пройти революционный курс по гитаре.
Подарок от PrimaNota.Ru, забирай!