PrimaNota.ru - самый крупный в мире бесплатный архив песенных текстов, аккордов, табулатур и нот


Promise Ring - Heart Of A Broken Story - таба, видео

Регистрация Запомнить меня
Войти через:  Facebook Google Twitter Vk Yandex Mail.ru

Promise Ring - Heart Of A Broken Story - таба, видео

Печатать
Просмотров: 87
Title: Heart Of A Broken Story
Album: 30 Degrees Everywhere
Tabbed by: Kris Johansen - krisjohansen@guitarsrule.com
Tuning: EADGCE

IMPORTANT: Tune the b up 1/2 a step to a c.
Most likely this song is in open c tuning, but I think
this tab is good enough and quicker than retuning all those
other strings.

Introduction.


6/8 time.

e----------7-------------7---7--------------------------------------|
c-----0------0------0------0----------------------------------------|
G---7---7------7--7---7---------12h---------------------------------|
D-------------------------------------------------------------------|
A-------------------------------------------------------------------|
E-------------------------------------------------------------------|


                                       (these two notes only occur
guitar 2 verse (not exact)            at the beginning, thats
                                        why i tabbed this bit)

e-----7-7------7-7-----7-7--7-7--7-7-|--12-12------------------------|
c---0------0-0------0------0---0-----|-------------------------------|
G------------------------------------|-------------------------------|
D------------------------------------|-------------------------------|
A------------------------------------|-------------------------------|
E------------------------------------|-------------------------------|

Guitar 1 (lead) verse

e-----------------------------------------------------------0-------|
c-------------------------------------------------------------0-----|
G----0-------0-------0--------0-------0--------------0--------------|
D-------------------------------------------------------------------|
A--5----5--5---5--8-----8--7----7--3-----3--3----3-3----3-3---------|
E-------------------------------------------------------------------|


Guitar 1 (lead) Verse

e-------------------------------------------------------------------|
c-------------------------------------------------------------------|
G----0-------0-------0--------0-------0--------0--------------------|
D-------------------------------------------------------------------|
A--5----5--5---5--8-----8--7----7--3-----3--3----3------------------|
E-------------------------------------------------------------------|
then back to first bit of verse


Guitar 1 break - "Aroooooooooooouuuuuuuuuuund........."

e-----------------------------------------------------------------|
c-----------------------------------------------------------------|
G--12---12---12---9---4---4---4---7--7--7--7----------------------|
D-----------------------------------------------------------------|
A--10---10---10---7---2---2---2---5--5--5--5----------------------|
E-----------------------------------------------------------------|

Guitar 2 break

e---------------------------------7--7-7-7-7--7--7-7-7-7----------|
c---------------------------------0--0-0-0-0--0--0-0-0-0----------|
G---12-12-12-12-12----------------7--7-7-7-7--7--7-7-7-7----------|
D-----------------------------------------------------------------|
A---10-10-10-10-10----------------5--5-5-5-5--5--5-5-5-5----------|
E-----------------------------------------------------------------|

end of break 3x each chord

Guitar 1

e-----------------------------------------------------------------|
c--0-------0------------------------------------------------------|
G--0-------0-------0----------------------------------------------|
D--0-------0-------0----------------------------------------------|
A--0-------2-------3----------------------------------------------|
E--5--------------------------------------------------------------|

Guitar 2

e--7--7---7--7----7-----------------------------------------------|
c--0--0---0--0----0-----------------------------------------------|
G-----------------------------------------------------------------|
D-----------------------------------------------------------------|
A-----------------------------------------------------------------|
E-----------------------------------------------------------------|

"too many summers" (strum each chord six times) this fill also happens
just before the finale but only guitar 1 playing.

  guitar 2   guitar 1

e----------|----7-----|-------------------------------------------|
c----------|----0-----|-------------------------------------------|
G--5-------|----7-----|-------------------------------------------|
D--5-------|----5-----|-------------------------------------------|
A--3-------|----------|-------------------------------------------|
E----------|----------|-------------------------------------------|



Finale!


rhythm guitar 2
                                                  "shoulder to shoulder"
e---7--7--7-----------------------------------------------------------|
c---0--0--0---12--12--12--12--12--12----------------------------------|
G---7--7--7----------------------------7--7--7---5--5--5--5--5--5-----|
D-------------10--10--10--10--10--10----------------------------------|
A--------------------------------------5--5--5---3--3--3--3--3--3-----|
E---------------------------------------------------------------------|

lead guitar 1

e----------------------------------------------------------------------|
c----------------------------------------------------------------------|
G---12--12---14--14-----9---9---------7--7-------5-5-5-5-5-5-----------|
D------------------------------------------------5-5-5-5-5-5-----------|
A---10--10---12--12-----7---7---------5--5-------3-3-3-3-3-3-----------|
E----------------------------------------------------------------------|

Play through the above 4 times then the right guitar keeps playing the
C chord while the left guitar keeps doing its part. then both guitars
do these parts again and then end on the C chord.
Добавлено: 21.06.2013
Другие материалы по этой песне:
  • Аккорды и текст

Страница создана 21.06.2013
http://primanota.ru/promise-ring/heart-of-a-broken-story-chords.htm
Привет, Гость.
Предлагаем пройти революционный курс по гитаре.
Подарок от PrimaNota.Ru, забирай!