PrimaNota.ru - самый крупный в мире бесплатный архив песенных текстов, аккордов, табулатур и нот


Promise Ring - A Picture Postcard - таба, бас-таба, видео

Регистрация Запомнить меня
Войти через:  Facebook Google Twitter Vk Yandex Mail.ru

Promise Ring - A Picture Postcard - таба, бас-таба, видео

Печатать
Просмотров: 80
"A Picture Postcard"
The Promise Ring
Tabbed by Josh Glickenhaus (BeanieRC@gmail.com)

Standard tuning

Guitar 1:

e--<7>---<5>---<7>---<12>---<7>---<12>---<7>---<12>---|
B--<7>---<5>---<7>---<12>---<7>---<12>---<7>---<12>---|
G--<7>---<5>---<7>---<12>---<7>---<12>---<7>---<12>---|
D--<7>---<5>---<7>---<12>---<7>---<12>---<7>---<12>---|
A--<7>---<5>---<7>---<12>---<7>---<12>---<7>---<12>---|
E--<7>---<5>---<7>---<12>---<7>---<12>---<7>---<12>---|

Play this harmonic sequence once as an intro. Then continue repeating it as Guitar 2
in with this riff:

e:-------------------------------------------------------------------------|
B:--------------------------------------------------------------12-13-(15--|
G:-12-12-12-12-12-12-12-14-12-12-12----------12-9--------------------------|
D:-----------------------------------10---10------12------12s14------------|
A:----------------------------------------------------10-------------------|
E:-------------------------------------------------------------------------|

Repeat this riff four times. Play the note in parantheses only on the second and fourth
The rhythm is kind of jazzy and syncopated, so listen to the recording to figure that out.

Next comes the verse riff:
                  *
e:-------0--------0----------0--------|
B:---1------------1------1---1---1----|
G:-----0------0---0--------0----------|
D:-3------------3------3-------3------|
A:------------------------------------|
E:------------------------------------|

*play this with a quick, upward sweeping motion, as if you were just intending to pluck
e string, and hit the other two on your way up. It should produce a nice twangy sound.

Admittedly, the picking on this part is fairly random and incomprehensible, and also
each time they play it. What I have captures the essence of it, and sounds pretty good if
only have one guitar (there are two picking in the recording), although I'm sure it's 
exactly what they play. You can try messing around with different picking patterns with
same notes, which are definitely right.

As he starts singing the verse, only Guitar 1 is going with the harmonics. The picking
in when his voice starts to tail off (after half the harmonic riff is done).

At the end of the verse, Guitar 2 plays the intro riff again four times, while Guitar 1
with harmonics.

The comes this, starting palm-muted and gradually building up:

G:-----------------------------------|
D:-99999999999999999999999999999999--|    (32 strokes)
A:-77777777777777777777777777777777--|
E:-77777777777777777777777777777777--|

                 (Couldn't you take the second bus home...)

And finally the explosion, with the last verse:

   C9              G9
e:-0-0-0-0-0-0-0-0-0-0-0-0-0-0-0-0-|
B:-8-8-8-8-8-8-8-8-3-3-3-3-3-3-3-3-|
G:-7-7-7-7-7-7-7-7-2-2-2-2-2-2-2-2-|
D:-0-0-0-0-0-0-0-0-0-0-0-0-0-0-0-0-|
A:-x-x-x-x-x-x-x-x-x-x-x-x-x-x-x-x-|
E:-8-8-8-8-8-8-8-8-3-3-3-3-3-3-3-3-|

   F9
e:-0-0-0-0-0-0-0-0-0-0-0-0-0-0-0-0-|
B:-1-1-1-1-1-1-1-1-1-1-1-1-1-1-1-1-|
G:-0-0-0-0-0-0-0-0-0-0-0-0-0-0-0-0-|
D:-x-x-x-x-x-x-x-x-x-x-x-x-x-x-x-x-|
A:-x-x-x-x-x-x-x-x-x-x-x-x-x-x-x-x-|
E--1-1-1-1-1-1-1-1-1-1-1-1-1-1-1-1-|

Repeat the above progression four times.

Then the outro (harmonics continue throughout):

e:-------------------5-|
B:-------------------5-|
G:-5--5--5--5--7--9--5-|
D:-x--x--x--x--x--x--5-|
A:-3--3--3--3--5--7--3-|
E:---------------------|

Play these as he sings "And I'm convinced that you're from Mars." Listen to the
to hear when they come.


So, that's it. Any feedback is much appreciated.
Добавлено: 23.06.2012
Другие материалы по этой песне:
  • Аккорды и текст

Страница создана 23.06.2012
http://primanota.ru/promise-ring/a-picture-postcard-chords.htm
Привет, Гость.
Предлагаем пройти революционный курс по гитаре.
Подарок от PrimaNota.Ru, забирай!