PrimaNota.ru - самый крупный в мире бесплатный архив песенных текстов, аккордов, табулатур и нот


Proleter - Faidherbe Square - таба, видео

Регистрация Запомнить меня
Войти через:  Facebook Google Twitter Vk Yandex Mail.ru

Proleter - Faidherbe Square - таба, видео

Печатать
Просмотров: 145
-------------------------------------------------------------------------------
                             Faidherbe Square - Proleter
-------------------------------------------------------------------------------
Tabbed by:
E-mail: 18kilee@anesu.org

     This sounds better if played on a ukulele like I did but, it can still be played on guitar.
     Some of it might be wrong, because I wrote it by ear

Tuning: E A D G B e

e|---------------------------------------------------------------------------|
B|---------------------------------------------------------------------------|
G|---------------------------------------------------------------------------|
D|---------------------------------------------------------------------------|
A|-------------------7--7------5h7p5----3----0----0----3----5----7-----------|
E|-------4--5----------------------------------------------------------------|
  
e|---------------------------------------------------------------------------|
B|---------------------------------------------------------------------------|
G|---------------------------------------------------------------------------|
D|---------------------------------------------------------------------------|
A|-------------------7--7------5h7p5----3----0----0----3-------0---0---------|
E|-------4--5----------------------------------------------3-----------------|
  
     Repeat this throughout the whole song

************************************

| h   hammer-on
| p   pull-off


************************************
Добавлено: 24.06.2016
Другие материалы по этой песне:
  • Аккорды и текст

Страница создана 24.06.2016
http://primanota.ru/proleter/faidherbe-square-chords.htm
Привет, Гость.
Предлагаем пройти революционный курс по гитаре.
Подарок от PrimaNota.Ru, забирай!