PrimaNota.ru - самый крупный в мире бесплатный архив песенных текстов, аккордов, табулатур и нот


proletariat - Cycles - таба, видео

Регистрация Запомнить меня
Войти через:  Facebook Google Twitter Vk Yandex Mail.ru

proletariat - Cycles - таба, видео

Печатать
Просмотров: 66
-------------------------------------------------------------------------------
                             CYCLES - Proletariat
-------------------------------------------------------------------------------
Tabbed by: Stefan Celojevic

Tuning: Drop B

There might be an easier way of playing this.
It's just the high pitch sweeping intro, repeat accordingly.
Breakdowns and stuff are in drop B dissonant notes.
Check out my guitar pro version as well.

They're not well-known, check them out on: https://www.youtube.com/watch?v=OYFnSF4gFWI
I'm not in the band, nor do I own any rights to their music or tabs, this song is just sick!


e|-16p12----------------------------12-16-14-12------------------------------|
B|-------14----------------------14-------------16---------------------------|
G|----------13----------------13---------------------------------------------|
D|-------------14----------14------------------------------------------------|
A|----------------16-12h16---------------------------------------------------|
E|---------------------------------------------------------------------------|


e|-------------------------16----14----17----16------------------------------|
B|-14-12----------------12---------------------------------------------------|
G|-------14-13-11-13-14------------------------------------------------------|
D|----------------------------13----13----13----13---------------------------|
A|----------------------------PM----PM----PM----PM---------------------------|
E|---------------------------------------------------------------------------|

             
e|-16p12----------------------------12-16-14-12------------------------------|
B|-------14----------------------14-------------16---------------------------|
G|----------13----------------13---------------------------------------------|
D|-------------14----------14------------------------------------------------|
A|----------------16-12h16---------------------------------------------------|
E|---------------------------------------------------------------------------|

                            E  E  Q
e|-------------------------16------------------------------------------------|
B|-14-12----------------12----14---------------------------------------------|
G|-------14-13-11-13-14----------17------------------------------------------|
D|---------------------------------------------------------------------------|
A|---------------------------------------------------------------------------|
E|---------------------------------------------------------------------------|

e|-16p12----------------------------12-16-14-12------------------------------|
B|-------14----------------------14-------------16---------------------------|
G|----------13----------------13---------------------------------------------|
D|-------------14----------14------------------------------------------------|
A|----------------16-12h16---------------------------------------------------|
E|---------------------------------------------------------------------------|


e|-------------------------16----14----17----16------------------------------|
B|-14-12----------------12---------------------------------------------------|
G|-------14-13-11-13-14------------------------------------------------------|
D|----------------------------13----13----13----13---------------------------|
A|----------------------------PM----PM----PM----PM---------------------------|
E|---------------------------------------------------------------------------|


e|-16p12----------------------------12-16-14-12------------------------------|
B|-------14----------------------14-------------16---------------------------|
G|----------13----------------13---------------------------------------------|
D|-------------14----------14------------------------------------------------|
A|----------------16-12h16---------------------------------------------------|
E|---------------------------------------------------------------------------|

    T          T          T          T
e|-16-9h11h12-17-9h11h12-19-9h11h12-17-9h11h12-------------------------------|
B|---------------------------------------------------------------------------|
G|---------------------------------------------------------------------------|
D|---------------------------------------------------------------------------|
A|---------------------------------------------------------------------------|
E|---------------------------------------------------------------------------|


************************************

| /   slide up
| \   slide down
| h   hammer-on
| p   pull-off
| ~   vibrato
| +   harmonic
| x   Mute note
| b   Bend
| pb  Pre-bend
| br  Bend release
| pbr Pre-bend release
| brb Bend release bend
| PM palm mute
| T tapping

************************************
Добавлено: 08.06.2016
Другие материалы по этой песне:

Страница создана 08.06.2016
http://primanota.ru/proletariat/cycles-chords.htm
Привет, Гость.
Предлагаем пройти революционный курс по гитаре.
Подарок от PrimaNota.Ru, забирай!