PrimaNota.ru - самый крупный в мире бесплатный архив песенных текстов, аккордов, табулатур и нот


Projet Orange - Jamais De Mal - таба, видео

Регистрация Запомнить меня
Войти через:  Facebook Google Twitter Vk Yandex Mail.ru

Projet Orange - Jamais De Mal - таба, видео

Печатать
Просмотров: 62
Transcribed by Alexandre Tessier  alexandre@tessier.as>

Song: Jamais de mal
Band: Projet Orange
Album: Projet Orange
Lyrics: J-C Boies
Music: J-C Boies, S. Langelier


En ce qui concerne la partie de Jean-Christophe(G1), il me semble qu'il ne
joue pas en "powerchords", mais je n'ai pas trouvé les bons accords. B je
les trouve, je renverrai la bonne version à ce moment-là. Pour l'instant,
cette version me semble relativement similaire à l'original. Pour les deux
autres parties, je suis à 95% sûr de ce que j'ai écrit. Cependant, pour la
troisième partie, il manque sûrement certains riffs que mon oreille de 
novice n'a pas été capable de cerner parmis tous les autres instruments.
D'ailleurs, notez que ce document a été séparé en trois parties complète-
ment distinctes afin d'améliorer la lisibilité. Finalement, notez que le 
beat change quelques fois et peut varier de ce que j'ai écrit. Alors, il
serait préférable de se fier au CD plutôt qu'à ce que j'ai écrit. En
esperant que vous allez la jouer au moins aussi longtemps que ça m'a pris
pour la transcire...;)


Symbols:

/   = slide up
\   = slide down      
h   = hammer on
p   = pull off
... = repeat this note or this pattern many times
~   = vibrato
b   = bend


---Guitar 1 part---------------------------------------------------------------


Guitar 1 tuning: EADGBE

Chords: E A D G B E

F#5:	2 4 4 x x x
Em:     0 2 2 x x x
Eb:     6 6 8 x x x   
Gb5:   141616 x x x


|(0:00)
|
|---------------------------------------------------------------|
|---------------------------------------------------------------|
|-8----8----8--\6----6----6--/10---10---10--10---10---10--\-----|
|-8----8----8--\6----6----6--/10---10---10--10---10---10--\-----|   x3
|-6--6-6--6-6-6\4--4-4--4-4-4/-8--8-8--8-8-8-8--8-8--8-8-8\6--6-|
|-6--6-6--6-6-6\4--4-4--4-4-4/-8--8-8--8-8-8-8--8-8--8-8-8\6--6-|


|(0:33)
|(RiffG1-1b)	   
|----------------------------------------------------------------------| 
|----------------------------------------------------------------------| 
|----------------------------------------------------------------------| 
|-8----8----8--/11---11---11--/15-----15-----15----15-----15/18-18-18\-| 
|-6--6-6--6-6-6/-9--9-9--9-9-9/13--13-13--13-13-13-13--13-13/16-16-16\-| 
|-6--6-6--6-6-6/-9--9-9--9-9-9/13--13-13--13-13-13-13--13-13/16-16-16\-|

|(Riff1a)
|----------------------------------------------------------------------|
|----------------------------------------------------------------------|
|----------------------------------------------------------------------|
|-8----8----8--/11---11---11--/15-----15-----15----15-----15/13-13-13\-| 
|-6--6-6--6-6-6/-9--9-9--9-9-9/13--13-13--13-13-13-13--13-13/11-11-11\-|
|-6--6-6--6-6-6/-9--9-9--9-9-9/13--13-13--13-13-13-13--13-13/11-11-11\-|


|(0:55)
|
| RiffG1-1a  
| RiffG1-1b    x2
| RiffG1-1a


|(1:40)
|(RiffG1-2)
|--------------------------------------------------------------| 
|--------------------------------------------------------------| 
|-6--6--6-6-6-6-6--6-6--6-6-6-6--------------------------------| 
|-6--6--6-6-6-6-6--6-6--6-6-6-6--6--6--6-6-6-6-6--6-6--6-6-6-6-| 
|-4--4--4-4-4-4-4--4-4--4-4-4-4--6--6--6-6-6-6-6--6-6--6-6-6-6-| 
|--------------------------------4--4--4-4-4-4-4--4-4--4-4-4-4-| 
|
|-------------------------------| 
|-------------------------------| 
|-------------------------------| 
|-4--4--4-4-4-4-4--4-4--4-4-4-4-| 
|-4--4--4-4-4-4-4--4-4--4-4-4-4-| 
|-2--2--2-2-2-2-2--2-2--2-2-2-2-| 

|-------------------------------|
|-------------------------------|
|-8-----------------------------|
|-8--------11---------15--------|
|-6---------9---------13--------|
|-------------------------------|


|(2:08)
|
|RiffG1-1a
|RiffG1-1b    x2
|RiffG1-1a


|(2:52)
|
|RiffG1-2  F#5
|RiffG1-2  F#5 /Gb5 \


|(3:37)
|
|------------------------------------------------|
|------------------------------------------------|
|------------------------------------------------|
|-8--8--8-8-8-8-8--8-8--8-8-8-8--6--6--6-6-6-6-3-|
|-8--8--8-8-8-8-8--8-8--8-8-8-8--6--6--6-6-6-6-3-|
|-6--6--6-6-6-6-6--6-6--6-6-6-6--4--4--4-4-4-4-1-|
|
|----------------------------|
|----------------------------|
|----------------------------|
|-3--3-3-3-3-4-4-4-4-6-6-6-6-|
|-3--3-3-3-3-4-4-4-4-6-6-6-6-|
|-1--1-1-1-1-2-2-2-2-4-4-4-4-|


|(3:51)
|
|RiffG1-2  Em


|(4:13)
|
|RiffG1-1a
|RiffG1-1b
|RiffG1-1b \


|(4:59)
|
|-----------------------------------------------------------------------| 
|-----------------------------------------------------------------------| 
|-----------------------------------------------------------------------| 
|-8----8----8---11---11---11---15-----15-----15----18-----18-----18---\-| x4
|-6--6-6--6-6-6--9--9-9--9-9-9-13--13-13--13-13-13-16--16-16--16-16-16\-| 
|-6--6-6--6-6-6--9--9-9--9-9-9-13--13-13--13-13-13-16--16-16--16-16-16\-|

|--------------------------------------------------------------| 
|--------------------------------------------------------------| 
|--------------------------------------------------------------| 
|-----8--------8-------11-------11----------15-----------15----|
|-6-6-6-6--6-6-6-6--9-9-9-9--9-9-9-9--13-13-13-13--13-13-13-13-| 
|-6-6-6-6--6-6-6-6--9-9-9-9--9-9-9-9--13-13-13-13--13-13-13-13-|
|
|---------------------------| 
|---------------------------| 
|---------------------------| 
|-------18-----------18---\-|  x4
|-16-16-16-16--16-16-16-16\-| 
|-16-16-16-16--16-16-16-16\-| 
|
|(Après la 4e fois, slide down à Eb et laissez sonner...)



---Guitar 2 part---------------------------------------------------------------


Guitar 2 tuning: EADGBE


|(0:22)
|(RiffG2-1a)
|-----------------------------------------------------|
|-----------------------------------------------------|
|-----------------------------------------------------|
|-4-4h6-6-6---6-6h8-8-8---8-8p6-6-6---6-6p3-3-3-4-4-4-|
|-----------------------------------------------------|
|-----------------------------------------------------|


|(0:33)
|(RiffG2-1b)
|----------------------------------------------------------------|
|----------------------------------------------------------------|
|----------------------------------------------------------------|
|-4-4h6-6-6---6-6h8-8-8---8-8h10-10-10---10-10h11-11-11-13-13-13-|
|----------------------------------------------------------------|
|----------------------------------------------------------------|

|------------------------------------------------------------|
|------------------------------------------------------------|
|------------------------------------------------------------|
|-15-13--11---11-11-10-10-10---10-10\6-6-6---6-6\3-3-3-4-4-4-|
|------13----------------------------------------------------|
|------------------------------------------------------------|


|(0:55)
|
| RiffG2-1a  
| RiffG2-1b
|
|--------------------------------------------------------------|
|--------------------------------------------------------------|
|-----------------------------------------------------13-13-13-|
|-15-13--11---11-11-10-10-10---10-10/13-13-13---13-13----------|
|------13------------------------------------------------------|
|--------------------------------------------------------------|

|(RiffG2-2)
|-------------------------------------------------------|
|-11--13---11--13---11-13--11-13-13--11-13--11-11-13-11-|
|-------------------------------------------------------|
|-------------------------------------------------------|
|-------------------------------------------------------|
|-------------------------------------------------------|


|(1:40)
|(RiffG2-3)
|------------16-------------16-------------------------------------------|
|-11-14-11-14---11-14-11-14----14-14-14-13-11-13-11-14-14-14-13-11-13-11-|
|------------------------------------------------------------------------|
|------------------------------------------------------------------------|
|------------------------------------------------------------------------|
|------------------------------------------------------------------------|

|------------16------16~-----------------------------------------------|
|-11-14-11-14---11-14----14-14-13-13-13---13-13-11-11-11---11-11-9-9-9-|
|----------------------------------------------------------------------|
|----------------------------------------------------------------------|
|----------------------------------------------------------------------|
|----------------------------------------------------------------------|
|
|-------------|
|-9-9-6-6-6---|
|-------------|
|-----------8-|
|-------------|
|-------------|


|(2:40)
|
|RiffG2-2
|RiffG2-3
|
|------------16-------------16----------------------13--13-13-13-14--14-14-14-|
|-11-14-11-14---11-14-11-14----11-14-11-14-16-16-16---------------------------|
|-----------------------------------------------------------------------------|
|-----------------------------------------------------------------------------|
|-----------------------------------------------------------------------------|
|-----------------------------------------------------------------------------|
|
|-16-16-16-16-...-18-18-18-18--16-16-16--18-18-18--20-20-20-20-|
|--------------------------------------------------------------|
|--------------------------------------------------------------|
|--------------------------------------------------------------|
|--------------------------------------------------------------|
|--------------------------------------------------------------|
|
|-21-21-21-21--23-23b-23b-23b...-------------------------------------------|
|-------------------------------------------------------------11--11-11-11-|
|----------------------------------------------------10-10-10--------------|
|---------------------------------8-8-8-10--10-10-10-----------------------|
|--------------------------------------------------------------------------|
|--------------------------------------------------------------------------|
|
|----------------------------------------------------16-14-13-11-13-|
|-13-14-13-11-13-14-13-11----------------------13-14----------------|
|-------------------------13-8--10--11--13--15----------------------|
|-------------------------------------------------------------------|
|-------------------------------------------------------------------|
|-------------------------------------------------------------------|


|(3:50)
|
|RiffG2-3
|
|------------16-------------16------|
|-11-14-11-14---11-14-11-14----14---|
|-----------------------------------|
|-----------------------------------|
|-----------------------------------|
|-----------------------------------|


|(4:48)
|
|-18-18-18-18-18-18-18-...-18h19p18-18h19p18-18h19p18-...-19-19-19-19-...-|
|-------------------------------------------------------------------------|
|-------------------------------------------------------------------------|
|-------------------------------------------------------------------------|
|-------------------------------------------------------------------------|
|-------------------------------------------------------------------------|
|
|---------------------------------------------------------------|
|---------------------------------------------------------------|
|------10--11-11-11-10-10-10--11-11-11-10-10-10--10-10-10-8-8-8-|
|-8--8----------------------------------------------------------|
|---------------------------------------------------------------|
|---------------------------------------------------------------|
|
|---------------------------------------------------------|
|---------------------------------------------------11-13-|
|-10-10-10-8-8-8--8--8-8-8-6-6-6--6--6-6-6/13-13-13-------|
|---------------------------------------------------------|
|---------------------------------------------------------|
|---------------------------------------------------------|


|(5:21)
|
|RiffG2-3   x2
|
|------------16-------------16--16-16-16-16-...-18-18-18-18-...-|
|-11-14-11-14---11-14-11-14-------------------------------------|
|---------------------------------------------------------------|
|---------------------------------------------------------------|
|---------------------------------------------------------------|
|---------------------------------------------------------------|
|
|-18h19p18-18h19p18-18h19p18-...-19-19-19-19-19-19-...-| 
|------------------------------------------------------|
|------------------------------------------------------|  (jusqu'à la fin...)
|------------------------------------------------------|
|------------------------------------------------------|
|------------------------------------------------------|



---Guitar 3 part---------------------------------------------------------------


Guitar 3 tuning: EADGBE

Chords: EADGBE
Bb5:	6x8xxx



|(0:33)
|(RiffG3-1)
|------------------------------------------------------------------|
|-----4------4---------4------4---------6------6---------6---------|
|-------6------6---------6------6---------6------6---------8-6---8-| 
|-6-6------6-------6-6------6-------8-8------8-------8-8-------8---|   x2
|------------------------------------------------------------------|
|------------------------------------------------------------------|


|(1:57)
|
|RiffG3-1


|(3:37)
|
|-----------------------|
|-----------------------|
|-----------------------|
|-8-8-8-10-10-10-11-11\-|  x3
|-x-x-x--x--x--x--x--x\-|
|-6-6-6--8--8--8--9--9\-|
|
|--------------------------------------------------------------------|
|--------------------------------------------------------------------|
|--------------------------------------------------------------------|
|-6--6--6\10-10-8-8-8-10-10-10-11-11\8-8-8-10-10-10-10-10-10-10-11-8-|
|-x--x--x\x--x--x-x-x--x--x--x--x--x\x-x-x--x--x--x--x--x--x--x--x-x-|
|-4--4--9\8--8--6-6-6--8--8--8--9--9\6-6-6--8--8--8--8--8--8--8--9-6-|


|(4:59)
|(RiffG3-2a)
|----------------------------------------------------------------|
|----------------------------------------------------------------|
|----------------------------------------------------------------|
|-6-6-6-8-8-8-10-10-8-8-8-10-10-10-11-11-11-11-11-11-11-11-11-11-|
|-x-x-x-x-x-x--x--x-x-x-x--x--x--x--x--x--x--x--x--x--x--x--x--x-|
|-4-4-4-6-6-6--8--8-6-6-6--8--8--8--9--9--9--9--9--9--9--9--9--9-|
|
|-------------------------|
|-------------------------|
|-------------------------|   x3
|-13-13-13-13-13-13-13-13-|
|--x--x--x--x--x--x--x--x-|
|-11-11-11-11-11-11-11-11-|

|----------------------------------------------------------------|
|----------------------------------------------------------------|
|----------------------------------------------------------------|
|-6-6-6-8-8-8-10-10-8-8-8-10-10-10-11-11-11-11-11-11-11-11-11-11-|
|-x-x-x-x-x-x--x--x-x-x-x--x--x--x--x--x--x--x--x--x--x--x--x--x-|
|-4-4-4-6-6-6--8--8-6-6-6--8--8--8--9--9--9--9--9--9--9--9--9--9-|
|
|-------------------------|
|-------------------------|
|-------------------------|
|-13-13-13-13-13/16-16-16-|
|--x--x--x--x--x/-x--x--x-|
|-11-11-11-11-11/14-14-16-|

|RiffG3-2a   x2

|-----------------------------------------|
|-----------------------------------------|
|-----------------------------------------|
|-6-6-6-6-6-6-6-6-10-10-10-10-10-10-10-10-|
|-x-x-x-x-x-x-x-x--x--x--x--x--x--x--x--x-|
|-4-4-4-4-4-4-4-4--8--8--8--8--8--8--8--8-|
|
|-----------------------------------------|
|-----------------------------------------|
|-----------------------------------------|
|-8-8-8-8-8-8-8-8-11-11-11-11-11-11-11-11-|   x2
|-x-x-x-x-x-x-x-x--x--x--x--x--x--x--x--x-|
|-6-6-6-6-6-6-6-6--9--9--9--9--9--9--9--9-|

|Bb5 (un seul coup et laissez sonner...)



Des corrections ou des commentaires constructifs?
Il n'y  a qu'une seule adresse... alexandre@tessier.as
     
Добавлено: 07.11.2013
Вам также может быть интересно:
Другие материалы по этой песне:
  • Аккорды и текст

Страница создана 07.11.2013
http://primanota.ru/projet-orange/jamais-de-mal-chords.htm
Привет, Гость.
Предлагаем пройти революционный курс по гитаре.
Подарок от PrimaNota.Ru, забирай!