PrimaNota.ru - самый крупный в мире бесплатный архив песенных текстов, аккордов, табулатур и нот


Projet Orange - Chute Libre - таба, видео

Регистрация Запомнить меня
Войти через:  Facebook Google Twitter Vk Yandex Mail.ru

Projet Orange - Chute Libre - таба, видео

Печатать
Просмотров: 77
Transcribed by Alexandre Tessier  alexandre@tessier.as>

Song: Chute libre
Band: Projet Orange
Album: Projet Orange
Lyrics: J-C Boies
Music: J-C Boies, J-S Boies


Symbols:

/   = slide up
\   = slide down      
b   = bend
r   = release



---Guitar 1 part---------------------------------------------------------------


Tuning: Standard

Chords: EADGBE

A:      x0222x
Em:     02200x
G:      32003x
A??:	54000x


|(0:00)
|(RiffG1-1)
|---------------------------------|
|-----3-------0-------3-------0---|
|-----2-------2-----------------2-|
|---0---0-------------2-----------|   x9
|-2---------0---0---2---2---2-----|
|---------2-------0-------3-------|


|--------------------------|
|-----3-------0----3---3---|
|-----2-------2----0---0---|
|---0---0----------2---0---|
|-2---------0---0--2---2---|
|---------2--------0---3---|


|(1:16)
|(RiffG1-2)
|---------------------------------------------------------|
|-2---------2-2-3---------3-3-3---------3-3-3---------3-3-|
|-2-2-2-2-2-2-2-2-2-2-2-2-2-2-2-2-2-2-2-2-2-2-2-2-2-2-2-2-|
|-2-2-2-2-2-2-2-0-0-0-0-0-0-0-0-0-0-0-0-0-0-0-0-0-0-0-0-0-|   x6
|-0-0-0-0-0-0-0-2-2-2-2-2-2-2-x-x-x-x-x-x-x-x-x-x-x-x-x-x-|
|-----------------------------2-2-2-2-2-2-2-3-3-3-3-3-3-3-|


|(1:58)
|(RiffG1-1)  x8


|(2:56)
|(RiffG1-2)  x6


|(3:37)
|
| A    Em  G   x8
|
| Em  G        x2
| Em    G  A??



---Guitar 2 part---------------------------------------------------------------


Tuning: Standard

A guitare 2 est utilisée pour soutenir la guitare 1 pendant le refrain. 
Dans ce cas, utilisez les mêmes notes que la guitare 1, mais en powerchords. 
Je n'ai remarqué qu'un seul autre riff qui pourrait être joué par la 
guitare 2 et on peut l'entendre vers la fin...

|------------------------------------------------------|
|------------------------------------------------------|
|------------------------------------------------------|
|------------------------------------------------------|
|-7--7--7b8r7-7--7-7-7-7-7-7\2--2--2/5--5--5-5-5-5-5-5-|
|------------------------------------------------------|

Et finir avec la dernière moitié du riff (les 2 et les 5) jouée
environ 3 fois. Ensuite, jouer plusieurs 5 de fil et slider
à 7 (toujours sur la corde #5)...



---Guitar 3 part---------------------------------------------------------------


Tuning: Standard

Ce riff est aussi joué vers la fin.

|--------------------------------------------------|
|-14b15-15r14-14\10-10-----------------------------|
|-----------------------11b12-12r11-11/16-16-16-14-|
|--------------------------------------------------|
|--------------------------------------------------|
|--------------------------------------------------|

Et finir avec la dernière moitié du riff jouée environ 2½ fois.
Jouer plusieurs 11 de fil et slider à 14(corde #3)...
Évidemment, il est conseillé de jouer avec le CD pour bien cerner la 
façon de jouer.


------

Adressez vos questions ou commentaires à moi-même...
alexandre@tessier.as
     
Добавлено: 27.09.2013
Вам также может быть интересно:
Другие материалы по этой песне:
  • Аккорды и текст

Страница создана 27.09.2013
http://primanota.ru/projet-orange/chute-libre-chords.htm
Привет, Гость.
Предлагаем пройти революционный курс по гитаре.
Подарок от PrimaNota.Ru, забирай!