PrimaNota.ru - самый крупный в мире бесплатный архив песенных текстов, аккордов, табулатур и нот


Projected - 12804 - таба, видео

Регистрация Запомнить меня
Войти через:  Facebook Google Twitter Vk Yandex Mail.ru

Projected - 12804 - таба, видео

Печатать
Просмотров: 116
Projected: 12804

Transcribed by: mysticguitar77

YouTube Username: MysticGuitar77

Date last modified: March 6, 2013

Tuning: Altered Drop B (B,F#,B,E,F#,B)

Riff 1 (clean and let all notes ring out)
 B|---0-----0-----0----0------0---------0-----0-----0~-|
F#|-----0-----0----------0------0---------0-----0---0~-|
 E|-9-----9-----9---10-----10-----10\------------------|
 B|-----------------------------------8-----8-----8----|
F#|----------------------------------------------------|
 B|----------------------------------------------------|

Play Riff 1 x2

Riff 2 (w/ delay)  "I wish you were still here..."
 B|-------------------------------------------------------------|
F#|-------------------------------------------------------------|
 E|-------------------------------------------------------------|
 B|-0-8~----0-5~----0-3~--3\2~-2/3-3/5-3~--0-8~----0-5~----0-3~-|
F#|-------------------------------------------------------------|
 B|-------------------------------------------------------------|

Play Riff 2 x2   "But wishing for you won't bring you back..."

Riff 3   "Somewhere there's another, all in for the other..."
 B|-------------------------------------------------|
F#|-------------------------------------------------|
 E|-------------------------------------------------|
 B|-10-10-10-10-10-10-10-10-10-10-10-10-10-10-12-12-|
F#|-10-10-10-10-10-10-10-10-10-10-10-10-10-10-12-12-|
 B|-10-10-10-10-10-10-10-10-10-10-10-10-10-10-12-12-|

 B|---------------------------------|
F#|---------------------------------|
 E|---------------------------------|
 B|-8-8-8-8-8-8-8-8-5-5-5-5-5-5-5-5-|
F#|-8-8-8-8-8-8-8-8-5-5-5-5-5-5-5-5-|
 B|-8-8-8-8-8-8-8-8-5-5-5-5-5-5-5-5-|

        1st alteration
 B|--------------------------------------------|
F#|--------------------------------------------|
 E|-19--17-17-17-17-17-12-12-12-12-10-10-9-9\7-|
 B|-x---x--x--x--x--x--x--x--x--x--x--x--x-x-x-|
F#|-17--15-15-15-15-15-10-10-10-10-8--8--7-7\5-|
 B|--------------------------------------------|

 B|-------------------------------------------------|
F#|-------------------------------------------------|
 E|-------------------------------------------------|
 B|-10-10-10-10-10-10-10-10-10-10-10-10-10-10-10-10-|
F#|-8--8--8--8--8--8--8--8--8--8--8--8--8--8--8--8--|
 B|-8--8--8--8--8--8--8--8--8--8--8--8--8--8--8--8--|

First half of Riff 3 repeats again, then the 2nd alteration at the end is
just the intro again except distorted and that gets played twice.

Play Riff 2 x2   "Still today I feel you near..."
Play Riff 3 x2   "Somewhere there's another..."
                 (Riff 3 with the 1st alteration ending gets played twice
                  this time, and then the top half of Riff 3 gets repeated
                  again so really it's like 2.5 times.)
Play Riff 1 x2   (clean)
Play Riff 3 x2   "Somewhere there's another..."
                 (Same deal as above except the 2nd alteration which is the
                  intro except distorted gets played 4 times at the end.)

Enjoy!!
Добавлено: 22.09.2013
Другие материалы по этой песне:
  • Аккорды и текст

Страница создана 22.09.2013
http://primanota.ru/projected/12804-chords.htm
Привет, Гость.
Предлагаем пройти революционный курс по гитаре.
Подарок от PrimaNota.Ru, забирай!