PrimaNota.ru - самый крупный в мире бесплатный архив песенных текстов, аккордов, табулатур и нот


Project 86 - The Sanctuary Hum - текст песни, таба, бас-таба, видео

Регистрация Запомнить меня
Войти через:  Facebook Google Twitter Vk Yandex Mail.ru

Project 86 - The Sanctuary Hum - текст песни, таба, бас-таба, видео

Печатать
Просмотров: 68
-------------------------------------------------------------------------------
		       The Sanctuary Hum - Project 86
-------------------------------------------------------------------------------
Tabbed by: Nolan N.
Email: vikingsfan_19@hotmail.com

Tuning: DADbge

Order:  Verse
	Pre-Chorus
	Chorus
	Transition
	Verse
	Pre-Chorus
	Chorus
	Bridge
	Chorus
	
Verse
e|---------------------------------------------------------------------------|
B|---------------------------------------------------------------------------|
G|---------------------------------------------------------------------------|
D|---------------------------------------------------------------------------|
A|----------------77-77-57-77-7-7-55-55-33-33-2-0----------------------------|
E|22-22-33-33-5-7---------------------------------22-22-02-22-2-2------------|

Pre-Chorus
e|---------------------------------------------------------------------------|
B|---------------------------------------------------------------------------|
G|---------------------------------------------------------------------------|
D|2--------10------7--2--------10------7-------------------------------------|
A|2--------10------7--2--------10------7-------------------------------------|
E|2--------10------7--2--------10------7-------------------------------------|

Chorus
e|---------------------------------------------------------------------------|
B|---------------------------------------------------------------------------|
G|---------------------------------------------------------------------------|
D|2-2-2-2-5-5-5-5-7-7-7-7-3-3-3-3--------------------------------------------|
A|2-2-2-2-5-5-5-5-7-7-7-7-3-3-3-3--------------------------------------------|
E|2-2-2-2-5-5-5-5-7-7-7-7-3-3-3-3--------------------------------------------|

Transition
e|---------------------------------------------------------------------------|
B|---------------------------------------------------------------------------|
G|---------------------------------------------------------------------------|
D|2--------------------------------------------------------------------------|
A|2--------------------------------------------------------------------------|
E|2/14\2---------------------------------------------------------------------|

Bridge part 1
e|---------------------------------------------------------------------------|
B|---------------------------------------------------------------------------|
G|---------5----8---------8-7-6-5-4-2------8-------8-7-6-5-4-2-8-7-6-5-4-2---|
D|2--------5----x----2----x-x-x-x-x-x-2----x--2----x-x-x-x-x-x-x-x-x-x-x-x---|
A|2--------3----6----2----6-5-4-3-2-0-2----6--2----6-5-4-3-2-0-6-5-4-3-2-0---|
E|2------------------2----------------2-------2------------------------------|
	      
Bridge part 2
e|---------------------------------------------------------------------------|
B|---------------------------------------------------------------------------|
G|--------------------------------99-99-99-99-9-9-77-77-55-55-4-2------------|
D|22-22-22-22-2-2-55-55-55-55-5-5-99-99-99-99-9-9-77-77-55-55-4-2------------|
A|22-22-22-22-2-2-55-55-55-55-5-5-77-77-77-77-7-7-55-55-33-33-2-0------------|
E|22-22-22-22-2-2-55-55-55-55-5-5--------------------------------------------|

Bridge part 3
e|---------------------------------------------------------------------------|
B|---------------------------------------------------------------------------|
G|--------------------------------99-99-99-99-9-9-8-7-6-5-4-2----------------|
D|22-22-22-22-2-2-55-55-55-55-5-5-99-99-99-99-9-9-x-x-x-x-x-x----------------|
A|22-22-22-22-2-2-55-55-55-55-5-5-77-77-77-77-7-7-6-5-4-3-2-0----------------|
E|22-22-22-22-2-2-55-55-55-55-5-5--------------------------------------------|


| /  slide up
| \  slide down
| h  hammer-on
| p  pull-off
| ~  vibrato
| +  harmonic
| x  Mute note
===============================================================================
Добавлено: 30.11.2013
Другие материалы по этой песне:

Страница создана 15.06.2012
http://primanota.ru/project-86/the-sanctuary-hum-chords.htm
Привет, Гость.
Предлагаем пройти революционный курс по гитаре.
Подарок от PrimaNota.Ru, забирай!