PrimaNota.ru - самый крупный в мире бесплатный архив песенных текстов, аккордов, табулатур и нот


Project 86 - Stalemate - текст песни, таба, видео

Регистрация Запомнить меня
Войти через:  Facebook Google Twitter Vk Yandex Mail.ru

Project 86 - Stalemate - текст песни, таба, видео

Печатать
Просмотров: 45
Artist: Project 86
Title: Stalemate
Album: Project 86

Drop D Tuning
The verses have heavy tremolo. 

Verse A
Part 1          Part 2
---------------|------------------------------|
---------------|------------------------------|
-7-7-7-7----7--|------7--------7--------------|
-6-6-6-6----6--|------6--------6--------------|
-5-5-5-5----5--|------5--------5--------------|
----------0----|-0-0-0---0-0-0---0-0-0h8-8-8p0|

On the second part of that verse, strum the D chord slowly up by the
bridge, to get that bright sound. Mess around with the D power chords
through the verses; pick different individual strings, and use variations
to get their exact sound.

Distorted Chorus
----------------------------------------|
----------------------------------------|
-------8-8-8-8-8-8---------8-8-8-5-5-8-8|
----------------------------------------|
0-0-0--6-6-6-6-6-6--0-0-0--6-6-6-3-3-6-6|
0-0-0---------------0-0-0---------------|

Verse B
------------------------------|
------------------------------|
------------------------------|
-7-7-7-7-7--8-8-8-8-8--5-5-8-8|
-5-5-5-5-5--6-6-6-6-6--3-3-6-6|
------------------------------|
m  m  m  m  m   m  m m m m  m m m m

Riff 1                          Riff 2
----------------------------|-----------------------|
----------------------------|-----------------------|
-8-8-8-8---------------8888-|------------------8888-|
-7-7-7-7--------------------|-3-3-3-3---------------|
-5-5-5-5---3---3-0-30--6666-|-1-1-1-1-3-3-0-30-6666-|
-----------3---3-0-30-------|---------3-3-0-30------|
   
Riff 3          End Part A      End Part B
---------------|-------------|---------------------|
---------------|-------------|---------------------|
----------8888-|-3-----------|---------------------|
----------6666-|-------------|---------------------|
-3-3-0-30------|-1-----------|-------6-------66----|
-3-3-0-30------|-------0-----|-0-0-0---0-0-0-----0-|

Song Order
Weird Intro
Verse A (part 1 X10, part 2 X4)
Chorus X4
Verse A (part 2) X10
Verse B (play verse A until Andrew says "a little detour won't hurt", then verse B) X8
Chorus X4
Riff 1 X3
Riff 2 X1
Riff 3 X3
End Part A X4
End Part B X2

Guide to Symbols:
h- hammer 
p- pull off
m- palm mute
Добавлено: 03.04.2016
Другие материалы по этой песне:
  • Аккорды и текст

Страница создана 27.07.2012
http://primanota.ru/project-86/stalemate-chords.htm
Привет, Гость.
Предлагаем пройти революционный курс по гитаре.
Подарок от PrimaNota.Ru, забирай!