PrimaNota.ru - самый крупный в мире бесплатный архив песенных текстов, аккордов, табулатур и нот


Project 86 - Six Sirens - текст песни, таба, видео

Регистрация Запомнить меня
Войти через:  Facebook Google Twitter Vk Yandex Mail.ru

Project 86 - Six Sirens - текст песни, таба, видео

Печатать
Просмотров: 119
		   Project 86: Six Sirens
Posted by: BlindS49@aol.com

This song is an awsome song to play.  It's easy too!

symbols: x=mute string
         /=slide up
         h=hammer on




drop "d" tuning

intro after drums:

e------x------------
b------x------------
g------7------------
d--3-0-x-0-3-0-3/6-0
a--3-0-5-0-3-0-3/6-0
d--3-0-x-0-3-0-3/6-0     repeat 4 times


verse 1 is the same as the intro  (repeat 4 times for the first part of the
verse)
then...

bridge
"hours passed unsettled....."
e-----------------xxxx-------------------------
b-----------------xxxx-------------------------
g-----------------7777-------------------------
d-3-0-3-0-0-3-0-0-xxxx--3-0-3-0-0-3-0-0-3/6-6-6
a-3-0-3-0-0-3-0-0-5555--3-0-3-0-0-3-0-0-3/6-6-6
d-3-0-3-0-0-3-0-0-xxxx--3-0-3-0-0-3-0-0-3/6-6-6   play that twice  then......


"I smell the stench unavoidable...."
d-0
a-0
d-0       let it ring until drums come back in then repeat intro for verse 2



repeat bridge      then....

"watch me inhale..."
                     e-------x--x--x
                     b-------x--x--x
                     g-------15-15-15         this is the "bliss"
                     d-0-0-0-x--x--x
                     a-0-0-0-13-13-13
                     d-0-0-0-x--x--x      play 16 times    then...

e------------------------
b------------------------
g-------7---------------5
d-0-0-0-7-0-0-0h3-0h3-0-5
a-0-0-0-5-0-0-0h3-0h3-0-3
d-0-0-0---0-0-0h3-0h3-0--      repeat 8 times then go to the "bliss" ^ 
                               and repeat 16 times  then...


d-0-0--0--0-0-0--0-0
a-0-0--0--0-0-0--0-0
d-0-0--0--0-0-0--0-0      repeat this until song eventually fades out



you got it!  Now go and play it with your band!!
have fun!     
Добавлено: 18.10.2013
Другие материалы по этой песне:
  • Аккорды и текст

Страница создана 07.05.2012
http://primanota.ru/project-86/six-sirens-chords.htm
Привет, Гость.
Предлагаем пройти революционный курс по гитаре.
Подарок от PrimaNota.Ru, забирай!