PrimaNota.ru - самый крупный в мире бесплатный архив песенных текстов, аккордов, табулатур и нот


Project 86 - Sioux Lane Spirits - текст песни, таба, бас-таба, видео

Регистрация Запомнить меня
Войти через:  Facebook Google Twitter Vk Yandex Mail.ru

Project 86 - Sioux Lane Spirits - текст песни, таба, бас-таба, видео

Печатать
Просмотров: 158
Уроки эстрадного вокала в Санкт-Петербурге
Band- Project 86
Song- Sioux Lane Spirits

Tuning- Dropped D

p.m. and X - Palm Mute
 - Slide down


                                Project 86 - Sioux Lane Spirits

      Intro- (Play twice through)
e|--------------------------------------------------------------------------|
B|--------------------------------------------------------------------------|
G|--------------------------------------------------------------------------|
D|-0-8-7-0-10-12-0-----0-8-7-0-10-12-0-5-----0-8-7-0-10-12-0----0-2-3-5-3---| 
A|-0-8-7-0-10-12-0-----0-8-7-0-10-12-0-5-----0-8-7-0-10-12-0----0-2-3-5-3---|
D|-0-8-7-0-10-12-0-----0-8-7-0-10-12-0-5-----0-8-7-0-10-12-0----0-2-3-5-3---|


      Pre-Verse-
e|------------------------------------------------------------------------------------|
B|------------------------------------------------------------------------------------|
G|---------9-9-9-9---9-9-9-9---9------------------------------------------------------|
D|-8-8-8-8-8-8-8-8---7-7-7-7---7------------------------------------------------------|
A|-8-8-8-8-8-8-8-8---7-7-7-7---7------------------------------------------------------|
D|-8-8-8-8-8-8-8-8---7-7-7-7---7------------------------------------------------------|



      Verse- (Play twice through...)
e|--------------------------------------------------------------------------|
B|--------------------------------------------------------------------------|
G|--------------------------------------------------------------------------|
D|-0-0-0--2-2-2--5-5-5--3-3-0-3-0-3-0--8-8-8-8-8-8-8-8--7-7-7-7-7-7-7-7-----|
A|-0-0-0--2-2-2--5-5-5--3-3-0-3-0-3-0--8-8-8-8-8-8-8-8--7-7-7-7-7-7-7-7-----|   
D|-0-0-0--2-2-2--5-5-5--3-3-0-3-0-3-0--8-8-8-8-8-8-8-8--7-7-7-7-7-7-7-7-----|   
  Palm-mute--------------------------------------------------------------->      

    ----------------------------------------------------------------------|     
    ----------------------------------------------------------------------|  
    ----------------------------------------------------------------------|  
    -0-0-0--2-2-2--5-5-5--3-3-0-3-0-3-0--8-8-8--7-7-7-7-7-7-7-7-----------|
    -0-0-0--2-2-2--5-5-5--3-3-0-3-0-3-0--8-8-8--7-7-7-7-7-7-7-7-----------|
    -0-0-0--2-2-2--5-5-5--3-3-0-3-0-3-0--8-8-8--7-7-7-7-7-7-7-7-----------|
     palm-mute---------------------------->|    --------------->

(Only palm-mute through the first two "8's", then hit the third 8 normally, 
  then palm-mute the rest) 
    


      (This part below, is only for the second time through the verse)
     -------------------------|
     -------------------------|
     -------------------------|
     -8-8-8-----7-7-7---------|
     -8-8-8-----7-7-7---------|
     -8-8-8-----7-7-7---------|
    p.m-->|   p.m-->|
                                                                        (8-8-8    7-7-7)
     (Palm-mute the first two beats of each pair of the sets of three - (8-8-8  & 7-7-7)
                                                                        (8-8-8    7-7-7)
                                                                       p.m-->|  p.m-->|



       Chorus- (Play twice through...)
e|-------------------------------------------------------------------------|
B|-------------------------------------------------------------------------|
G|-------------------------------------------------------------------------|
D|-0-8-7-0-10-12-0---0-8-7-0-10-12-0-5---0-8-7-0-10-12-0---0-5-7-8-7-------|
A|-0-8-7-0-10-12-0---0-8-7-0-10-12-0-5---0-8-7-0-10-12-0---0-5-7-8-7-------|
D|-0-8-7-0-10-12-0---0-8-7-0-10-12-0-5---0-8-7-0-10-12-0---0-5-7-8-7-------|      

    ------------------------------------------------------------------------|     
    ------------------------------------------------------------------------|     
    ------------------------------------------------------------------------|
    -0-8-7-0-10-12-0---0-8-7-0-10-12-0-5---0-8-7-0-10-12-0---0-2-3-5-3------|
    -0-8-7-0-10-12-0---0-8-7-0-10-12-0-5---0-8-7-0-10-12-0---0-2-3-5-3------|
    -0-8-7-0-10-12-0---0-8-7-0-10-12-0-5---0-8-7-0-10-12-0---0-2-3-5-3------|




      Pre-Verse-
e|--------------------------------------|
B|--------------------------------------|
G|---------9-9-9-9---9-9-9-9--9---------|
D|-8-8-8-8-8-8-8-8---7-7-7-7--7---------|
A|-8-8-8-8-8-8-8-8---7-7-7-7--7---------|
D|-8-8-8-8-8-8-8-8---7-7-7-7--7---------|


      Verse-  (Play it exactly how I tabbed it above, in the first verse...)
e|--------------------------------------------------------------------------|
B|--------------------------------------------------------------------------|
G|--------------------------------------------------------------------------|
D|-0-0-0--2-2-2--5-5-5--3-3-0-3-0-3-0--8-8-8-8-8-8-8-8--7-7-7-7-7-7-7-7-----|
A|-0-0-0--2-2-2--5-5-5--3-3-0-3-0-3-0--8-8-8-8-8-8-8-8--7-7-7-7-7-7-7-7-----|   
D|-0-0-0--2-2-2--5-5-5--3-3-0-3-0-3-0--8-8-8-8-8-8-8-8--7-7-7-7-7-7-7-7-----|  
  Palm-mute-------------------------------------------------------------->      
    

    ------------------------------------------------------------------------------|   
    ------------------------------------------------------------------------------| 
    ------------------------------------------------------------------------------|  
    -0-0-0--2-2-2--5-5-5--3-3-0-3-0-3-0--8-8-8--7-7-7-7-7-7-7-7-------------------|
    -0-0-0--2-2-2--5-5-5--3-3-0-3-0-3-0--8-8-8--7-7-7-7-7-7-7-7-------------------|
    -0-0-0--2-2-2--5-5-5--3-3-0-3-0-3-0--8-8-8--7-7-7-7-7-7-7-7-------------------|
     palm-mute---------------------------->|    ----------------->

(Only palm-mute through the first two "8's", then hit the third 8 normally,
  then palm-mute the rest) 
    


      (This part below, is only for the second time through the verse)
     -------------------------|
     -------------------------|
     -------------------------|
     -8-8-8-----7-7-7---------|
     -8-8-8-----7-7-7---------|
     -8-8-8-----7-7-7---------|
    p.m-->|   p.m-->|
                                                                        (8-8-8    7-7-7)
     (Palm-mute the first two beats of each pair of the sets of three - (8-8-8  & 7-7-7)
                                                                        (8-8-8    7-7-7)
                                                                       p.m-->|  p.m-->|



       Chorus- (Play twice through...)
e|-------------------------------------------------------------------------|
B|-------------------------------------------------------------------------|
G|-------------------------------------------------------------------------|
D|-0-8-7-0-10-12-0---0-8-7-0-10-12-0-5---0-8-7-0-10-12-0---0-5-7-8-7-------|
A|-0-8-7-0-10-12-0---0-8-7-0-10-12-0-5---0-8-7-0-10-12-0---0-5-7-8-7-------|
D|-0-8-7-0-10-12-0---0-8-7-0-10-12-0-5---0-8-7-0-10-12-0---0-5-7-8-7-------|      

--------------------------------------------------------------------|-----|     
--------------------------------------------------------------------|-----|     
--------------------------------------------------------------------|-----|      (0)
-0-8-7-0-10-12-0---0-8-7-0-10-12-0-5---0-8-7-0-10-12-0---0-2-3-5-3--|--0--|(Play (0) only second time through)
-0-8-7-0-10-12-0---0-8-7-0-10-12-0-5---0-8-7-0-10-12-0---0-2-3-5-3--|--0--|      (0)
-0-8-7-0-10-12-0---0-8-7-0-10-12-0-5---0-8-7-0-10-12-0---0-2-3-5-3--|--0--|


       Bridge-
e|-----------------------------------------------------------------------------------|
B|-----------------------------------------------------------------------------------|
G|-9-9-9-9---X-X---9-9-9-9---X-X---9-9-9-9---9-9-9-9---X-X---9-9-9-9---X-X---9-9-9-9-|
D|-8-8-8-8---X-X---8-8-8-8---X-X---8-8-8-8---7-7-7-7---X-X---7-7-7-7---X-X---7-7-7-7-|
A|-8-8-8-8---X-X---8-8-8-8---X-X---8-8-8-8---7-7-7-7---X-X---7-7-7-7---X-X---7-7-7-7-|
D|-8-8-8-8---X-X---8-8-8-8---X-X---8-8-8-8---7-7-7-7---X-X---7-7-7-7---X-X---7-7-7-7-|
   
     ------------|
     ------------|
     --9---------|
     --0---------|
     --0---------|
     --0---------|


             Bridge/Solo- 

(This is where there needs to be two guitarists...one to play the bridge, 
 and one to play the solo...The bridge and the solo are played together...)

        
             Guitar #1- (Solo)
e|-------------------------------|
B|-------------------------------|
G|-9-10-12-10-9-10-9-7-9-10-9----|  (Play twice through)
D|-------------------------------|
A|-------------------------------|
D|-------------------------------|

             Solo Continued...
e|--4---7-4---7-4-4--------------------7---7-7-----|
B|-5-5-5-5-5-5-5-5----9-9-9-7-7-7-9-9-9-9-9-9-9----|
G|-------------------------------------------------|
D|-------------------------------------------------|
A|-------------------------------------------------|
D|-------------------------------------------------|

     ------------------7-7-7-----|
     -9-9-9-7-7-7-9-9-9-9-9-9----| (Play this, the second time through this part of the solo...)
     ----------------------------|
     ----------------------------|
     ----------------------------|
     ----------------------------|


        Guitar #2- (Bridge)          (Play the bridge four times through, while Guitar #1 plays the solo...)
e|-----------------------------------------------------------------------------------|
B|-----------------------------------------------------------------------------------|
G|-9-9-9-9---X-X---9-9-9-9---X-X---9-9-9-9---9-9-9-9---X-X---9-9-9-9---X-X---9-9-9-9-|
D|-8-8-8-8---X-X---8-8-8-8---X-X---8-8-8-8---7-7-7-7---X-X---7-7-7-7---X-X---7-7-7-7-|
A|-8-8-8-8---X-X---8-8-8-8---X-X---8-8-8-8---7-7-7-7---X-X---7-7-7-7---X-X---7-7-7-7-|
D|-8-8-8-8---X-X---8-8-8-8---X-X---8-8-8-8---7-7-7-7---X-X---7-7-7-7---X-X---7-7-7-7-|


       Verse- (Play Verse four times through)
e|--------------------------------------------------------------------------|
B|--------------------------------------------------------------------------|
G|--------------------------------------------------------------------------|
D|-0-0-0--2-2-2--5-5-5--3-3-0-3-0-3-0--8-8-8-8-8-8-8-8--7-7-7-7-7-7-7-7-----|
A|-0-0-0--2-2-2--5-5-5--3-3-0-3-0-3-0--8-8-8-8-8-8-8-8--7-7-7-7-7-7-7-7-----|   
D|-0-0-0--2-2-2--5-5-5--3-3-0-3-0-3-0--8-8-8-8-8-8-8-8--7-7-7-7-7-7-7-7-----|   
   Palm-mute------------------------------------------------------------>

  (The fourth time through the verse, slowly let off Palm-muting...)


(Play this part below the fourth time through the verse, NOT Palm-muting these last six chords at all...)
     -------------------------|
     -------------------------|
     -------------------------|
     -8-8-8-----7-7-7---------|
     -8-8-8-----7-7-7---------|
     -8-8-8-----7-7-7---------|


       Chorus- (Play the chorus through, three times)
e|-------------------------------------------------------------------------|
B|-------------------------------------------------------------------------|
G|-------------------------------------------------------------------------|
D|-0-8-7-0-10-12-0---0-8-7-0-10-12-0-5---0-8-7-0-10-12-0---0-5-7-8-7-------|
A|-0-8-7-0-10-12-0---0-8-7-0-10-12-0-5---0-8-7-0-10-12-0---0-5-7-8-7-------|
D|-0-8-7-0-10-12-0---0-8-7-0-10-12-0-5---0-8-7-0-10-12-0---0-5-7-8-7-------|      

    ------------------------------------------------------------------------|     
    ------------------------------------------------------------------------|     
    ------------------------------------------------------------------------|
    -0-8-7-0-10-12-0---0-8-7-0-10-12-0-5---0-8-7-0-10-12-0---0-2-3-5-3------|
    -0-8-7-0-10-12-0---0-8-7-0-10-12-0-5---0-8-7-0-10-12-0---0-2-3-5-3------|
    -0-8-7-0-10-12-0---0-8-7-0-10-12-0-5---0-8-7-0-10-12-0---0-2-3-5-3------|

        (The Outro gets played immediately after the chorus is done being played...)

    Outro- (Play through twice)
e|-----------------------------------------|
B|-----------------------------------------|
G|---------9-9-9-9---9-9-9-9--9------------|
D|-8-8-8-8-8-8-8-8---7-7-7-7--7------------|
A|-8-8-8-8-8-8-8-8---7-7-7-7--7------------|
D|-8-8-8-8-8-8-8-8---7-7-7-7--7------------|

(Play the part below after the second time through the Outro...also, slowly let the last chord fade out...)
        ---------------------------------|
        ---------------------------------|
        ---------------------------------|
        --0------------------------------|
        --0------------------------------|
        --0------------------------------|
Добавлено: 03.04.2016
Другие материалы по этой песне:

Страница создана 23.04.2012
http://primanota.ru/project-86/sioux-lane-spirits-chords.htm
Привет, Гость.
Предлагаем пройти революционный курс по гитаре.
Подарок от PrimaNota.Ru, забирай!