PrimaNota.ru - самый крупный в мире бесплатный архив песенных текстов, аккордов, табулатур и нот


Project 86 - Set me up - текст песни, таба, бас-таба, видео

Регистрация Запомнить меня
Войти через:  Facebook Google Twitter Vk Yandex Mail.ru

Project 86 - Set me up - текст песни, таба, бас-таба, видео

Печатать
Просмотров: 160
Project 86
Set Me Up
Drawing Black Lines

Drop D Tuning

( )=palm mute

"Set Me Up" - intro/chorus
E -------------------------------------------------|
B -------------------------------------------------|
G -------------------------------------------------|
D -0--6-5/3----0--6-5/3----0--6-5/3----0--(1-1-1)--|
A -0--6-5/3----0--6-5/3----0--6-5/3----0--(1-1-1)--|
D -0--6-5/3----0--6-5/3----0--6-5/3----0--(1-1-1)--|

Pre-verse riff
E -------------------------------------------------|
B -------------------------------------------------|
G -------------------------------------------------|
D -------------------------------------------------|
A -------------------------------------------------|
D --6-6-6-0-0-0--6-6-6-0-0-0--6-6-6-0-0-0----------|

Verse
E -------------------------------------------------|
B -------------------------------------------------|
G -------------------------------------------------|
D ---3--0------12-------0---6-5-6------------------|
A ---3--0---------------0---6-5-6------------------|
D ---3--0---------------0---6-5-6------------------|


- Pre-Chorus "riff"
E ------------------------------------------------|
B ------------------------------------------------|
G ----10-10-10-10-10-10-10-10---------------------|
D ----x--x--x--x--x--x--x--x----------------------|
A ----8--8--8--8--8--8--8--8----------------------|
D ------------------------------------------------|


After the second chorus just let the "D" ring out.
E ------------|
B ------------|
G ------------|
D -----0------|
A -----0------|
D -----0------|

Bridge
This is really the only part of the song that I'm not sure about.
E -------------------------------------------|
B -------------------------------------------|
G -----------7/10/7-----------7/10/7---------|
D -----0-----x/x/x------------x/x/x----------|
A -----0-----5/8/5------------5/8/5----------|
D -----0-------------------------------------|


Bridge solo
E ---------------------------------------------|
B ---------------------------------------------|
G ---------------------------------------------|
D ------3p0-----------3p0-----3p0--3p0---------|
A ---------------------------------------------|
D ---------------------------------------------|

Song structure:
Intro/Chorus
PreVerse riff
Verse 1
PreChorus "riff"
Verse 1 (continued)
PreChorus "riff"
Chorus
Pre Verse riff
Verse 2
Chorus
"ring out"
bridge
bridge solo
Verse
Добавлено: 03.04.2016
Другие материалы по этой песне:

Страница создана 24.02.2012
http://primanota.ru/project-86/set-me-up-chords.htm
Привет, Гость.
Предлагаем пройти революционный курс по гитаре.
Подарок от PrimaNota.Ru, забирай!