PrimaNota.ru - самый крупный в мире бесплатный архив песенных текстов, аккордов, табулатур и нот


Project 86 - Run - текст песни, таба, видео

Регистрация Запомнить меня
Войти через:  Facebook Google Twitter Vk Yandex Mail.ru

Project 86 - Run - текст песни, таба, видео

Печатать
Просмотров: 85
Title: Run
Artist: Project 86
CD: S/T
Tuning: Drop D (DADGBE)
Tabbed by: Brad, 365_days_gone
__________________________________________________________________
__________________________________________________________________


Intro:

E|---------------------------------------------------------------------|
B|---------------------------------------------------------------------|
G|---------------------------------------------------------------------|
D|-12-12--12-12--12-12--12-12-12-10---12-12--12-12--12-12--12-12-12-10-|
A|-12-12--12-12--12-12--12-12-12-10---12-12--12-12--12-12--12-12-12-10-|
D|-12-12--12-12--12-12--12-12-12-10---12-12--12-12--12-12--12-12-12-10-|

E|--------------------------------------------------------------------|
B|--------------------------------------------------------------------|
G|--------------------------------------------------------------------|
D|-12-12--12-12--12-12--12-12-12-10---12-12--12-12--12-12-------------|
A|-12-12--12-12--12-12--12-12-12-10---12-12--12-12--12-12-------------|
D|-12-12--12-12--12-12--12-12-12-10---12-12--12-12--12-12-------------|


E|---------------------------------------------------------------------|
B|---------------------------------------------------------------------|
G|---------------------------------------------------------------------|
D|-12-12--12-12--12-12--12-12-12-10---12-12--12-12--12-12--12-12-12-10-|
A|-12-12--12-12--12-12--12-12-12-10---12-12--12-12--12-12--12-12-12-10-|
D|-12-12--12-12--12-12--12-12-12-10---12-12--12-12--12-12--12-12-12-10-|

E|--------------------------------------------------------------------|
B|--------------------------------------------------------------------|
G|--------------------------------------------------------------------|
D|-12-12--12-12--12-12--12-12-12-10---12-12--12-12--12-12-------------|
A|-12-12--12-12--12-12--12-12-12-10---12-12--12-12--12-12-------------|
D|-12-12--12-12--12-12--12-12-12-10---12-12--12-12--12-12-------------|


Verse:

E|-------------------------------------------------------|
B|-------------------------------------------------------|
G|-----7~~-------7~~------7~~--------13------------------|
D|-------------------------------------     Play this----| 4x
A|-------------------------------------     Bass plays 0-|s
D|-0-0-------0-0------0-0------0-0-0---------------------|

Bass solo:

E|-------------------------------------|
B|-------------------------------------|
G|-------------------------------------|
D|-------------------------------------|
A|-------------5-----------------------|
D|-0-3-5-6-5-3--------0-3-5-6-3-0------|       2x

Pre-Chorus:

E|----------------|
B|----------------|
G|----------------|
D|-3333--3333--33-|
A|-3333--3333--33-|
D|-3333--3333--33-|

Chorus:

E|-------------------------------------|
B|-------------------------------------|
G|-------------------------------------|
D|-------------------------------------|--- X4
A|-------------5-----------------------|
D|-0-3-5-6-5-3--------0-3-5-6-3-0------|

E|-------------------------------------|
B|-------------------------------------|
G|-------------------------------------|
D|-3333--3333--33----------------------|
A|-3333--3333--33----------------------|
D|-3333--3333--33----------------------|


Verse:

E|-------------------------------------------------------|
B|-------------------------------------------------------|
G|-----7~~-------7~~------7~~--------13------------------|
D|-------------------------------------     Play this----| 4x
A|-------------------------------------     Bass plays 0-|s
D|-0-0-------0-0------0-0------0-0-0---------------------|

Bass solo:

E|-------------------------------------|
B|-------------------------------------|
G|-------------------------------------|
D|-------------------------------------|
A|-------------5-----------------------|
D|-0-3-5-6-5-3--------0-3-5-6-3-0------|       2x

Pre-Chorus:

E|----------------|
B|----------------|
G|----------------|
D|-3333--3333--33-|
A|-3333--3333--33-|
D|-3333--3333--33-|

Bridge:

E|---------------------------------------------------------------------|
B|---------------------------------------------------------------------|
G|---------------------------------------------------------------------|
D|-12-12--12-12--12-12--12-12-12-10---12-12--12-12--12-12--12-12-12-10-|
A|-12-12--12-12--12-12--12-12-12-10---12-12--12-12--12-12--12-12-12-10-|
D|-12-12--12-12--12-12--12-12-12-10---12-12--12-12--12-12--12-12-12-10-|
E|---------------------------------------------------------------------|
B|---------------------------------------------------------------------|
G|---------------------------------------------------------------------|
D|-12-12--12-12--12-12--12-12-12-10---12-12--12-12--12-12--12-12-12-10-|
A|-12-12--12-12--12-12--12-12-12-10---12-12--12-12--12-12--12-12-12-10-|
D|-12-12--12-12--12-12--12-12-12-10---12-12--12-12--12-12--12-12-12-10-|

E|---------------------------------------------------------------------|
B|---------------------------------------------------------------------|
G|---------------------------------------------------------------------|
D|-12-12--12-12--12-12--12-12-12-10---12-12--12-12--12-12--12-12-12-10-|
A|-12-12--12-12--12-12--12-12-12-10---12-12--12-12--12-12--12-12-12-10-|
D|-12-12--12-12--12-12--12-12-12-10---12-12--12-12--12-12--12-12-12-10-|

E|--------------------------------------------------------------------|
B|--------------------------------------------------------------------|
G|--------------------------------------------------------------------|
D|-12-12--12-12--12-12--12-12-12-10---12-12--12-12--12-12-------------|
A|-12-12--12-12--12-12--12-12-12-10---12-12--12-12--12-12-------------|
D|-12-12--12-12--12-12--12-12-12-10---12-12--12-12--12-12-------------|


Outro:
(Strumming not shown)

E|--------------------------------------------------------------------|
B|--------------------------------------------------------------------|
G|-14-14\12-12/17-17\15-15\14-----14-14\12-12\10--10\9--9\7-----------|
D|--------------------------------------------------------------------|
A|-12-14\10-10/15-15\13-13\12-----12-14\10-10\8----8\7\-7\5-----------|
D|--------------------------------------------------------------------|

E|--------------------------------------------------------------------|
B|--------------------------------------------------------------------|
G|-14-----------------------------------------------------------------|
D|--------------------------------------------------------------------|
A|-12-----------------------------------------------------------------|
D|--------------------------------------------------------------------|
(hit rapidly, or play this:

E|---------------------------------------------------------------------|
B|---------------------------------------------------------------------|
G|---------------------------------------------------------------------|
D|-12-12--12-12--12-12--12-12-12-10---12-12--12-12--12-12--12-12-12-10-|
A|-12-12--12-12--12-12--12-12-12-10---12-12--12-12--12-12--12-12-12-10-|
D|-12-12--12-12--12-12--12-12-12-10---12-12--12-12--12-12--12-12-12-10-|

E|---------------------------------------------------------------------|
B|---------------------------------------------------------------------|
G|---------------------------------------------------------------------|
D|-12-12--12-12--12-12--12-12-12-10---12-12--12-12--12-12--12-12-12-10-|
A|-12-12--12-12--12-12--12-12-12-10---12-12--12-12--12-12--12-12-12-10-|
D|-12-12--12-12--12-12--12-12-12-10---12-12--12-12--12-12--12-12-12-10-|


Outro:

E|---------------------------------------------------------------------|
B|---------------------------------------------------------------------|
G|---------------------------------------------------------------------|
D|-12-12--12-12--12-12--12-12-12-10---12-12--12-12--12-12--12-12-12-10-|
A|-12-12--12-12--12-12--12-12-12-10---12-12--12-12--12-12--12-12-12-10-|
D|-12-12--12-12--12-12--12-12-12-10---12-12--12-12--12-12--12-12-12-10-|

E|--------------------------------------------------------------------|
B|--------------------------------------------------------------------|
G|--------------------------------------------------------------------|
D|-12-12--12-12--12-12--12-12-12-10---12-12--12-12--0-0---------------|
A|-12-12--12-12--12-12--12-12-12-10---12-12--12-12--0-0---------------|
D|-12-12--12-12--12-12--12-12-12-10---12-12--12-12--0-0---------------|
Добавлено: 28.07.2013
Другие материалы по этой песне:
  • Аккорды и текст

Страница создана 20.07.2012
http://primanota.ru/project-86/run-chords.htm
Привет, Гость.
Предлагаем пройти революционный курс по гитаре.
Подарок от PrimaNota.Ru, забирай!