PrimaNota.ru - самый крупный в мире бесплатный архив песенных текстов, аккордов, табулатур и нот


Project 86 - Rte 66 - таба, видео

Регистрация Запомнить меня
Войти через:  Facebook Google Twitter Vk Yandex Mail.ru

Project 86 - Rte 66 - таба, видео

Печатать
Просмотров: 95
this is my first tab, but noone has tabbed this awesome song yet, so i figured i'd give 
a shot. it probably sucks, but maybe someone better will critique it. project 86 rocks!! 
is off of the kane mutiny ep only available on itunes. check it out.

standard tuning

intro/verse
E|--------------------------------|
G|--------------------------------|
B|--------------------------------|
D|-5h65--2h32--2-5---2-2h32-------|x4
A|------------3-3---0-0------5----|
E|--------------------------3-3-0-|

pre-chorus (the desert sands...)
E|---------------------------|
G|---------------------------|
B|---------------------------|
D|-2-2-2h32-2-2-2-2-2h32-2-2-|x4
A|---------------------------|
E|---------------------------|

chorus (without your help...)
E|--------------------------------|           E|----|
G|--------------------------------|           G|----|
B|-9----7----6----5----7-5-7------|x2  end on B|-9--| let it ring
D|-9(x6)7(x6)6(x6)5(x3)7-5-7------|           D|-9--|
A|-7----5----4----3----5-3-5------|           A|-7--|
E|--------------------------------|           E|----|

intro
pre-chorus
chorus

bridge part 1
E|-----------------------------|
G|-----------------------------|
B|-9-9-12-9-9-12-9-9-12-9-9-10-|
D|-x-x-x--x-x-x--x-x-x--x-x-x--|x2
A|-7-7-10-7-7-10-7-7-10-7-7-8--|
E|-0-0----0-0----0-0----0-0----|

bridge part 2
E|-----------------------------|
G|-----------------------------|
B|-9-----7----12---------------|
D|-x(x24)x(x4)x (x4)-----------|
A|-7-----5----10---------------|
E|-----------------------------|

intro x2
bridge part 1 x4

end on
D|-2--|
A|-2--|
E|-0--|
Добавлено: 07.08.2013
Другие материалы по этой песне:
  • Аккорды и текст

Страница создана 07.08.2013
http://primanota.ru/project-86/rte-66-chords.htm
Привет, Гость.
Предлагаем пройти революционный курс по гитаре.
Подарок от PrimaNota.Ru, забирай!