PrimaNota.ru - самый крупный в мире бесплатный архив песенных текстов, аккордов, табулатур и нот


Project 86 - Off The Grid - таба, видео

Регистрация Запомнить меня
Войти через:  Facebook Google Twitter Vk Yandex Mail.ru

Project 86 - Off The Grid - таба, видео

Печатать
Просмотров: 69
Project 86
Off the Grid
Drop C tuning

*-palm mute
/-slide
b-bend
X-mute
p-pull off
br-bend & release

Intro/Verse: 4X
Guitar 1 (Distorted)
D|--------------------------------------|
A|--------------------------------------|
F|--------------------------------------|
C|-0-00-12-000-00-10-00-8-0-8/7-7-7-----| play this 1st and 3rd time
G|--------------------------------------|
C|--------------------------------------|
   * * * * * * * * * * * * * * * * *

D|--------------------------------------|
A|--------------------------------------|
F|--------------------------------------|
C|-0-00-12-000-00-10-00-8-0-8-0-7-0-7-0-| play this 2nd and 4th time
G|--------------------------------------|
C|--------------------------------------|
   * * * * * * * * * * * * * * * * * * *
Guitar 2 (Overdriven)
D|----------------------------------------------|
A|-------------------5br------------------------|
F|-0-2-5555-4444-5p4--------0-2-5555-4444-4/2---|let that 2nd fret ring out
C|----------------------------------------------| 
G|----------------------------------------------|
C|----------------------------------------------|
play this on guitar 1s 3rd and 4th time through intro only

Verse same as intro

Chorus: 2X
Guitar 1 (Distorted)
D|---------------------------------------------|
A|----------------------------15----13---11/10-|
F|-----------------------------X-----X----X/X--|
C|-0000-10101010-87877777-----12----10----8/7--|
G|-0000-10101010-87877777--00----00----00------|
C|-0000-10101010-87877777--00----00----00------|

Guitar 2 (Overdriven)
D|----------------------|
A|--15----13---11/10----|
F|---X-----X----X/X-----|
C|--12----10----8/7-----| play this with guitar 1
G|----------------------|
C|----------------------|


Repeat 2 bars of intro and entire verse
Repeat Chorus

Bridge:
Guitar 1 (Distorted)
D|---------------------------------------------------------|
A|-------------stop on 1st 5 last time through-------------|
F|---------------------------------------------------------|
C|---------------------------------------------------------| X4
G|---------------------------------------------------------|
C|-0-0000-0-0-0-0000-0-0-3-3333-3-3-5-5555-5-5-------------|

Guitar 2 (Overdriven)
D|---------------------------------------------------------|
A|-----6-666-----8-888------11-11 11 11 11-101010----------| made it easier
F|--777-------777--------777-------------------------------| to see the 11s
C|---------------------------------------------------------| 
G|---------------------------------------------------------|
C|---------------------------------------------------------|
play on guitar 1s 3rd and 4th time through

Guitar 1 (Distorted)
D|------------------------------------------------|
A|-----4------6-------11-11---10------------------|
F|-----7b-----9b------14-14b--13b-----------------| X2
C|------------------------------------------------|
G|-0-0----0-0-----0-0-----------------------------|
C|-0-0----0-0-----0-0-----------------------------|

Guitar 2 (Overdriven)
D|------------------------------------------------|
A|-----4------6-------11-11---10------------------|
F|-----7b-----9b------14-14b--13b-----------------| X2
C|------------------------------------------------|
G|------------------------------------------------|
C|------------------------------------------------|

Repeat verse

Guitar 2 (Clean)
D|--6--|
A|--6--|
F|--6--| X4 at the beginning of each bar of this verse
C|-----|
G|-----|
C|-----|

Repeat chorus

Outro is one more bar of the chorus, both guitars slide down
Добавлено: 03.11.2013
Вам также может быть интересно:
Другие материалы по этой песне:
  • Аккорды и текст

Страница создана 03.11.2013
http://primanota.ru/project-86/off-the-grid-chords.htm
Привет, Гость.
Предлагаем пройти революционный курс по гитаре.
Подарок от PrimaNota.Ru, забирай!