PrimaNota.ru - самый крупный в мире бесплатный архив песенных текстов, аккордов, табулатур и нот


Project 86 - From December - текст песни, таба, видео

Регистрация Запомнить меня
Войти через:  Facebook Google Twitter Vk Yandex Mail.ru

Project 86 - From December - текст песни, таба, видео

Печатать
Просмотров: 142
----------------------------------------------------------------------------
			     From December - Project 86
----------------------------------------------------------------------------

Tabbed by: Daniel Sonksen
Email:laxonite@gmail.com

Tuning:C#G#C#F#A#D#

Intro(x2)
|------------------------------|
|------------------------------|
|------------------------7-5---|
|-------7-8-7--------7-8-----5-|
|--5-8----------5-8------------|
|------------------------------|

Verse
|------------------------------------------------------------|
|--11-10-11-6-11-10-11-8-------10-11-10-------10-11-10-11-10-|
|-------------------------7-10-----------7-10----------------|
|------------------------------------------------------------|
|------------------------------------------------------------|
|------------------------------------------------------------|

|------------------------------------------------------10-8---|
|--11-10-11-6-11-10-11-8-------10-11-10-------10-11-10------8-|
|-------------------------7-10-----------7-10-----------------|
|-------------------------------------------------------------|
|-------------------------------------------------------------|
|-------------------------------------------------------------|


Pre-Chorus
|------------------------|
|--11-10-11-6-11-10-11-8-|
|------------------------|
|------------------------|
|------------------------|
|------------------------|


Chorus
|-----------------------------------------------------------------|
|-----------------------------------------------------------------|
|-----------------------------------------------------------------|
|--0------8-8-8-8-8-8-8-8-8----10-10-8-0--------------------------|
|--0------8-8-8-8-8-8-8-8-8----10--8-6-0--------------------------|
|--0---------------------------10------0------13-12-10-8-10-7-8-7-|

Verse
|------------------------------------------------------------|
|--11-10-11-6-11-10-11-8-------10-11-10-------10-11-10-11-10-|
|-------------------------7-10-----------7-10----------------|
|------------------------------------------------------------|
|------------------------------------------------------------|
|------------------------------------------------------------|

|------------------------------------------------------10-8---|
|--11-10-11-6-11-10-11-8-------10-11-10-------10-11-10------8-|
|-------------------------7-10-----------7-10-----------------|
|-------------------------------------------------------------|
|-------------------------------------------------------------|
|-------------------------------------------------------------|


Pre-Chorus
|------------------------|
|--11-10-11-6-11-10-11-8-|
|------------------------|
|------------------------|
|------------------------|
|------------------------|

Chours
|-----------------------------------------------------------------|
|-----------------------------------------------------------------|
|-----------------------------------------------------------------|
|--0------8-8-8-8-8-8-8-8-8----10-10-8-0--------------------------|
|--0------8-8-8-8-8-8-8-8-8----10--8-6-0--------------------------|
|--0---------------------------10------0------13-12-10-8-10-7-8-7-|

Bridge
-----------------------------------|
-----10-11-10-------10-11-10-11-10-|
-10-----------7-10-----------------|
-----------------------------------|
-----------------------------------|
-----------------------------------|

---------------10-8---|
------10-11-10------8-|
-7-10-----------------|
----------------------|
----------------------|
----------------------|

Then (x2)
|----------------------------------------|
|----------------------------------------|
|--7-14-12-14-15-17-19-19-17-15-14-15-14-|
|----------------------------------------|
|--5-12-10-12-13-15-17-17-15-13-12-13-12-|
|----------------------------------------|

this in the background:
-----
-----
-----
-0-8-
-0-8-
-0-8-

add this second time:
--------------------|
--------------------|
--------------------|
--------------------|
--------------------|
13-12-10-8-10-7-8-7-|



Then:
|----------------------------------------------|
|----------------------------------------------|
|----------------------------------------------|
|--0-0---0-0---0-0---5----8-8\--8-8--8-8--7-7\-|
|--0-0---0-0---0-0---5----8-8\--8-8--8-8--7-7\-|
|--0-0---0-0---0-0---5----8-8\--8-8--8-8--7-7\-|

|--------------------------------------------|
|--------------------------------------------|
|--------------------------------------------|
|--0-0---0-0---0-0---5---8-8\--8-8--8-8--7-7-|
|--0-0---0-0---0-0---5---8-8\--8-8--8-8--7-7-|
|--0-0---0-0---0-0---5---8-8\--8-8--8-8--7-7-|


Chours

|-----------------------------------------------------------------|
|-----------------------------------------------------------------|
|-----------------------------------------------------------------|
|--0------8-8-8-8-8-8-8-8-8----10-10-8-0--------------------------|
|--0------8-8-8-8-8-8-8-8-8----10--8-6-0--------------------------|
|--0---------------------------10------0------13-12-10-8-10-7-8-7-|

and this at the same time

|----------------------------------------|
|----------------------------------------|
|--7-14-12-14-15-17-19-19-17-15-14-15-14-|
|----------------------------------------|
|--5-12-10-12-13-15-17-17-15-13-12-13-12-|
|----------------------------------------|


Outro:
|---------------------------------------------|
|---------------------------------------------|
|---------------------------------------------|
|--0-0---0-0---0-0---5-5---8\--8-8--8-8--7-7\-|
|--0-0---0-0---0-0---5-5---8\--8-8--8-8--7-7\-|
|--0-0---0-0---0-0---5-5---8\--8-8--8-8--7-7\-|

with this:

|----------------------------------------|
|----------------------------------------|
|--7-7-7-7---14-14-14-14---15-15--14-14\-|
|----------------------------------------|
|--5-5-5-5---12-12-12-12---13-13--14-14\-|
|----------------------------------------|
Добавлено: 19.07.2013
Другие материалы по этой песне:
  • Аккорды и текст

Страница создана 16.06.2012
http://primanota.ru/project-86/from-december-chords.htm
Привет, Гость.
Предлагаем пройти революционный курс по гитаре.
Подарок от PrimaNota.Ru, забирай!