PrimaNota.ru - самый крупный в мире бесплатный архив песенных текстов, аккордов, табулатур и нот


Project 46 - Reasons - таба, видео

Регистрация Запомнить меня
Войти через:  Facebook Google Twitter Vk Yandex Mail.ru

Project 46 - Reasons - таба, видео

Печатать
Просмотров: 79
This is my first tab, but it sounds very accurate to me. Directly below is the main 
chords and the melody. However, there are a couple of possible corrections to the chords at 
the bottom if you think these ones are wrong. Try each out and use whichever 
sounds better to you :)

Chords played throughout

    Em   G    C    D
E---3----3----0----2---|
B---3----3----1----3---|
G---0----0----0----2---|
D---2----0----2----0---|
A---2----2----3----x---|
E---0----3----x----x---|


Melody

E-3---0---3-5-3-0-3---0---3-5-3-0-3---0---3-5-3-0-3---2---3-5-3-0-| Repeat
B-----------------------------------------------------------------|
G-----------------------------------------------------------------|
D-----------------------------------------------------------------|
A-----------------------------------------------------------------|
E-----------------------------------------------------------------|

The melody sounds exactly right to me, however the chords may be slightly off, although 
they are definitely very close. The 'C' chord may be a 'Cadd9' chord, and the 'D' chord 
may be a 'D4' chord.

 Cadd9      D4
E--3--|  E--3--|
B--3--|  B--3--|
G--0--|  G--2--|
D--2--|  D--0--|
A--3--|  A--x--|
E--x--|  E--x--|

Official Website:
http://www.project46.com
Добавлено: 11.07.2013
Вам также может быть интересно:
Другие материалы по этой песне:
  • Аккорды и текст

Страница создана 11.07.2013
http://primanota.ru/project-46/reasons-chords.htm
Привет, Гость.
Предлагаем пройти революционный курс по гитаре.
Подарок от PrimaNota.Ru, забирай!