PrimaNota.ru - самый крупный в мире бесплатный архив песенных текстов, аккордов, табулатур и нот


Prohibition - Demo (album) - таба, видео

Регистрация Запомнить меня
Войти через:  Facebook Google Twitter Vk Yandex Mail.ru

Prohibition - Demo (album) - таба, видео

Печатать
Просмотров: 138
Уроки эстрадного вокала в Санкт-Петербурге
-------------------------------------------------------------------------------
                            Demo - Band Name
-------------------------------------------------------------------------------
Tabbed by:
E-mail:

Tuning:Drop D

e|STR8EDGE-----------------------------------------------------------------------------|
B|-------------------------------------------------------------------------------------|
G|-------------------------------------------------------------------------------------|
D|-6--8-8-8--  11-11-11-----8---8---8-8-8----------------------------------------------|
A|-6--8-8-8-3x-11-11-11-3x--8---8---8-8-8--repeat till breakdown-----------------------|
E|-6--8-8-8--  11-11-11-----8---8---8-8-8----------------------------------------------|

e|Breakdown-----------------------------------------------------------------------------|
B|--------------------------------------------------------------------------------------|
G|--------------------------------------------------------------------------------------|
D|-3333---1--3-/-4----------------------------------------------------------------------|
A|-3333---1--3-/-4----------------------------------------------------------------------|
E|-3333---1--3-/-4----------------------------------------------------------------------|

e|-JUSTM00VE----------------------------------------------------------------------------|
B|--------------------------------------------------------------------------------------|
G|--------------------------------------------------------------------------------------|
D|-555-444-333---------777777--55555----------------------------------------------------|
A|-555-444-333-DRUMS---777777--55555-repeat til end of verse then do it again-----------|
E|-555-444-333---------777777--55555----------------------------------------------------|

e|JUSTICE DENUDOS------------------------------------------------------------------------------------|
B|---------------------------------------------------------------------------------------------------|
G|---------------------------------------------------------------------------------------------------|
D|-77--55--88--66-----------------------------------7-----PLAY OG RIFF -777777777-555555555--REPEAT--|
A|-77--55--88--66--ASK JAKE HOW MANY TIME TO REPEAT-7---------MUTED-----777777777-555555555--AS------|
E|-77--55--88--66-----------------------------------7HOLD---------------777777777-555555555--NEEDED--|

e|SMOKE------------------------------------------------------------------------------------------------------|
B|-----------------------------------------------------------------------------------------------------------|
G|-----------------------------------------------------------------------------------------------------------|
D|-4444444--111-222------------------------------------------------------------------------------------------|
A|-4444444--111-222-REPEAT ABOUT 8X-THEN MUTE-AND-PLAY-THROUGH-4X-THEN-OPEN-BACK-UP-AND PLAY-7X-THEN-END ON 4|
E|-4444444--111-222------------------------------------------------------------------------------------------|

e|BREAKDOWN------------------------------|
B|---------------------------------------|
G|---------------------------------------|
D|---1-1----1-----1-1-----1/3----REPEAT--|
A|---1-1----1-----1-1-----1/3------AS----|
E|(M)1-1-(O)1--(M)1-1--(O)1/3----NEEDED--|

e|SLAVE(CHUGFEST BOIIII)----------------|
B|--------------------------------------|
G|--------------------------------------|
D|3-2-1----JUST REPEAT THAT NASTY RIFF--|
A|3-2-1---------TILL THE LORD RETURNS---|
E|3-2-1---------------------------------|

e|---------------------------------------------------------------------------|
B|---------------------------------------------------------------------------|
G|---------------------------------------------------------------------------|
D|---------------------------------------------------------------------------|
A|---------------------------------------------------------------------------|
E|---------------------------------------------------------------------------|


************************************

| /   slide up
| \   slide down
| h   hammer-on
| p   pull-off
| ~   vibrato
| +   harmonic
| x   Mute note
| b   Bend
| pb  Pre-bend
| br  Bend release
| pbr Pre-bend release
| brb Bend release bend

************************************
Добавлено: 04.08.2015
Другие материалы по этой песне:
  • Аккорды и текст

Страница создана 04.08.2015
http://primanota.ru/prohibition/demo-album-chords.htm
Привет, Гость.
Предлагаем пройти революционный курс по гитаре.
Подарок от PrimaNota.Ru, забирай!