PrimaNota.ru - самый крупный в мире бесплатный архив песенных текстов, аккордов, табулатур и нот


Progres 2 - Píseň O Jablku - таба, видео

Регистрация Запомнить меня
Войти через:  Facebook Google Twitter Vk Yandex Mail.ru

Progres 2 - Píseň O Jablku - таба, видео

Печатать
Просмотров: 106
Уроки эстрадного вокала в Санкт-Петербурге
Standard tuning (EADGBE)
Standardní ladění (EADGHE)

h = hammer on / přiťuknout
p = pull off / odendat
\ = slide down / přejet


4x:
Verse 1 - Verse 2 - Flute solo - Verse 1
Sloka 1 - Sloka 2 - Flétnové sólo - Sloka 1

|------------5-6-5-----------|------------5-6-5-----------|------------5-6p5h6p5h6p5h6--|
|----------6-------6---------|----------6-------6---------|----------6------------------|
|--------7-----------7-------|--------7-----------7-------|--------7------------slower--|
|----5-8---------------8-5---|----5-8---------------8-5---|----5-8-------------pomaleji-|
|--7-----------------------7-|--7-----------------------7-|--7--------------------------|
|8---------------------------|8---------------------------|8----------------------------|


|5-----5-----5---8-----8-----8---|7-----7-----7---5-----5-----5---|
|--6-----6---------6-----6-------|--6-----6---------6-----6-------|
|----7-----7---7-----7-----7---7-|----7-----7---7-----7-----7---7-|
|--------------------------------|--------------------------------|
|--------------------------------|--------------------------------|
|--------------------------------|--------------------------------|
1)Léto      když zpívá         o  svatbách    jabloní,
2)Prý    osud    dříme         ve zlatých     parménách.

|5-----5-----5---8-----8-----8---|7-----7-----7---5-----5-----5---|
|--6-----6---------6-----6-------|--6-----6---------6-----6-------|
|----7-----7---7-----7-----7---7-|----7-----7---7-----7-----7---7-|
|--------------------------------|--------------------------------|
|--------------------------------|--------------------------------|
|--------------------------------|--------------------------------|
1)Strom plod  už skrývá,        domovem       zavoní.
2)Jak    málo    víme,            jablůňko    zelená

|8-------8-------8----8-----8-----8---|8-----6-----5---6-----6-----8-6-|
|--10------10------10---8-----8-----8-|--6-----6---------5-----5-------|
|-----10------10----------9-----9-----|----7-----7---7-----5-----5-----|
|-------------------------------------|--------------------------------|
|-------------------------------------|--------------------------------|
|-------------------------------------|--------------------------------|
1)Bubínek             mládí          z prohraných      her        zní mi
2)o dnech,         co přijdou          vzít  si  náš   čas.       Krájí

|5-----5-----5---5-----5-----5---|5-----6-----5---3-----5-----3---|
|--6-----6-----6---6-----6-------|--5-----5-----5---5-----5-------|
|----5-----5---------7-----7---7-|----6-----6---------6-----6---6-|
|--------------------------------|--------------------------------|
|--------------------------------|--------------------------------|
|--------------------------------|--------------------------------|
1)dál  kdesi   v zahradách,       kde  slunce     zapadá.
2)plod  ruka   matčina,           vše  znovu      začíná.

|1-----1-----1---5-----5-----5---|10-------10-------10----10-------10-------8-10-|
|--3-----3-----3---6-----6-----6-|---10-------10-------10----11-------11---------|
|----2-----2---------7-----7-----|------10-------10-------------10-------10------|
|--------------------------------|-----------------------------------------------|
|--------------------------------|-----------------------------------------------|
|--------------------------------|-----------------------------------------------|
1)V srdci    mi  zabuší         a tma        je jak       tér,
2)Něco      však pomine,          zůstal        mi        stesk.

|8-------8-------10----8----------------10----|6-----8-----10---6-----8-----10---|
|--10------10------------10----11\10----------|--8-----8----------8-----8--------|
|-----10------10----10------10-------10----10-|----9-----9----9-----9-----9----9-|
|---------------------------------------------|----------------------------------|
|---------------------------------------------|----------------------------------|
|---------------------------------------------|----------------------------------|
1)lepí           se    na duši,                nedá         mi  spát...
2)Jadérko              jediné                  na  dlani    mám...

Again (4x)
Znovu (4x)
______________

Suitar solo section:
Kytarové hrátky:

    |------------5-6-5-----------|------------5-6-5-----------|------------5-6-5-----------|
    |----------6-------6---------|----------6-------6---------|----------6-------6---------|
    |--------7-----------7-------|--------7-----------7-------|--------7-----------7-------|
... |----5-8---------------8-5---|----5-8---------------8-5---|----5-8---------------8-5---|
    |--7-----------------------7-|--7-----------------------7-|--7-----------------------7-|
    |8---------------------------|8---------------------------|8---------------------------|

|----6----|------------3-4-3-----------|------------3-4-3-----------|------------3-4-3-----------|
|---8-----|----------4-------4---------|----------4-------4---------|----------4-------4---------|
|--6------|--------5-----------5-------|--------5-----------5-------|--------5-----------5-------|
|-8-------|----3-6---------------6-3---|----3-6---------------6-3---|----3-6---------------6-3---|
|6-(chord)|--5-----------------------5-|--5-----------------------5-|--5-----------------------5-|
|--(akord)|6---------------------------|6---------------------------|6---------------------------|


|------8--|
|----10---|
|---8-----|      Again (2x) - Again (Many times, twice as fast)
|-10------|      Znovu (2x) - Znovu (Hodněkrát, dvakrát tak rychle)
|8-(chord)|
|--(akord)|

______________


|------------5-6-5-----------|------------5-6-5-----------|------------5-6p5h6p5h6p5h6--|
|----------6-------6---------|----------6-------6---------|----------6------------------|
|--------7-----------7-------|--------7-----------7-------|--------7------------slower--|
|----5-8---------------8-5---|----5-8---------------8-5---|----5-8-------------pomaleji-|
|--7-----------------------7-|--7-----------------------7-|--7--------------------------|
|8---------------------------|8---------------------------|8----------------------------|
Добавлено: 10.06.2016
Другие материалы по этой песне:
  • Аккорды и текст

Страница создана 10.06.2016
http://primanota.ru/progres-2/pisen-o-jablku-chords.htm
Привет, Гость.
Предлагаем пройти революционный курс по гитаре.
Подарок от PrimaNota.Ru, забирай!