PrimaNota.ru - самый крупный в мире бесплатный архив песенных текстов, аккордов, табулатур и нот


Profugus Mortis - Fallen - бас-таба, видео

Регистрация Запомнить меня
Войти через:  Facebook Google Twitter Vk Yandex Mail.ru

Profugus Mortis - Fallen - бас-таба, видео

Печатать
Просмотров: 141
Artist: Profugus Mortis (http://www.profugusmortis.com/)
Song: The Fallen
Album: So it begins


Tabbed by Bassman366



-Intro-
G|----------------|----------------|
D|----------------|----------------|
A|0---2-3-0-------|00002-3-0000----|
E|----------------|------------3-2-|
  .  . . .         .  . .  >


G|----------------|----------------|
D|----------------|----------------|
A|00002-3-00005-3-|00002-3-0000----|
E|----------------|------------3-2-|
  >       >        >       >


-Riff 1-
G|----------------|----------------|
D|----------------|----------------|
A|0000223300005533|000022330000----| (x2)
E|----------------|------------3322|
  >   > > >   > >  >   > > >   > >


-Bridge 1-
G|  ----------------|----------------  |
D|. ----------------|---------------- .|
A|. 2---0---2---4---|2---0----------- .|
E|  ----------------|--------3-2-0---  |


-Riff 2-
G|----------------|----------------|----------------|----------------|
D|----------------|----------------|----------------|----------------|
A|2222222222222222|0000000000000000|3333333333333333|2222222222225533| (x4)
E|----------------|----------------|----------------|----------------|


-Riff 1- (x2)


-Riff 3-
G|--------------|--------------|
D|--------------|--------------|
A|2-2---2-0-----|2-2---2-0-3---| (x7)
E|--------------|--------------|


-Bridge 2-                      
G|----------------|---------------------|
D|----------------|---------------------|
A|2---0---2---3---|5---3---2---0--(20/0)|
E|----------------|---------------------|
                   .   .   .   >


-Riff 1- (x2)


-Riff 3- (x7)


-Bridge 2-


-Solo- (Very not sure)
G|----------------|----------------|----------------|------------------|
D|----------------|----------------|----------------|------------------|
A|2222222200000000|3333333322222222|5555555533333333|222222222222222222| (x6)
E|----------------|----------------|----------------|------------------|


-Bridge 1-


-Riff 3- (x6)


-Bridge 2-


-Riff 1-


-Outro-
G|-----------|
D|-----------|
A|0--------0-|
E|-----------|
Добавлено: 11.03.2012
Другие материалы по этой песне:
  • Аккорды и текст

Страница создана 11.03.2012
http://primanota.ru/profugus-mortis/fallen-chords.htm
Привет, Гость.
Предлагаем пройти революционный курс по гитаре.
Подарок от PrimaNota.Ru, забирай!