PrimaNota.ru - самый крупный в мире бесплатный архив песенных текстов, аккордов, табулатур и нот


Professional Murder Music - Fall Again - текст песни, таба, бас-таба, видео

Регистрация Запомнить меня
Войти через:  Facebook Google Twitter Vk Yandex Mail.ru

Professional Murder Music - Fall Again - текст песни, таба, бас-таба, видео

Печатать
Просмотров: 173
SONG: Fall Again
	     BAND: Professional Murder Music
	    ALBUM: Professional Murder Music
   TRANSCRIBED BY: Chris Frazier (btabmaster@hotmail.com)
	     DATE: 06-15-2K1
          Added to UG By Mikhailo (mikhailo_mail.ru)
-------------------------------------------------------------------------------

	TUNING: Drop D (D A D G B E)

     Riff 1: (Intro/Pre-Verse/Verse Rhythm)
    E|-----------------------------------------------------|
    B|-----------------------------------------------------|
    G|-2--2-2-2-2-2---------------7--7-7-7-7--5--5-5-5-5-5-|
    D|-2--2-2-2-2-2-3--3-3-3-3-3--7--7-7-7-7--5--5-5-5-5-5-|
    A|-0--0-0-0-0-0-3--3-3-3-3-3--5--5-5-5-5--3--3-3-3-3-3-|
    D|--------------3--3-3-3-3-3---------------------------|

     Riff 2: (Pre-Verse Lead)
    E|-----------15--17-15-17-15----------------------|
    B|-14-12-13------------------17----15----------17-|
    G|------------------------------------14-12-14----|
    D|------------------------------------------------|
    A|------------------------------------------------|
    D|------------------------------------------------|

     Riff 3: (Verse Lead)
    E|------------------------|
    B|-10---10---10-10-10-10--|
    G|------------------------| Vibrato each note
    D|------------------------|
    A|------------------------|
    D|------------------------|

     Riff 4: (Chorus Rhythm)
    E|--------------------------------------|
    B|--------------------------------------|
    G|-2--2-2-2-2-2-2-2---------------------|
    D|-2--2-2-2-2-2-2-2--3--3-3-3--5--5-5-5-|
    A|-0--0-0-0-0-0-0-0--3--3-3-3--5--5-5-5-|
    D|-------------------3--3-3-3--5--5-5-5-|

     Riff 5: (Chorus Lead)
    E|-----------12/13-|
    B|-10br------------| /=slide
    G|-----------------| b=bend      slowly bend the string up a 1/2 step and then back down
    D|-----------------| r=release   while picking the string the whole time (very Tool-ish)
    A|-----------------| This is the best I can do... it's REALLY hard to hear
    D|-----------------|

     Riff 6: (Breakdown Lead)
    E|-7------7-------7----9-9-9-10-10-10-|
    B|---7------7-------7-----------------|
    G|-----7------7-----------------------|
    D|------------------------------------|
    A|------------------------------------|
    D|------------------------------------|

     Riff 7: (Ending Both)
    E|--------|
    B|--------|
    G|-2------| Let the chord
    D|-2------|   ring out
    A|-0------|
    D|--------|
Добавлено: 24.03.2012
Другие материалы по этой песне:
  • Аккорды и текст

Страница создана 24.03.2012
http://primanota.ru/professional-murder-music/fall-again-chords.htm
Привет, Гость.
Предлагаем пройти революционный курс по гитаре.
Подарок от PrimaNota.Ru, забирай!