PrimaNota.ru - самый крупный в мире бесплатный архив песенных текстов, аккордов, табулатур и нот


Professional Murder Music - Everything In The World - текст песни, бас-таба, видео

Регистрация Запомнить меня
Войти через:  Facebook Google Twitter Vk Yandex Mail.ru

Professional Murder Music - Everything In The World - текст песни, бас-таба, видео

Печатать
Просмотров: 113
Уроки эстрадного вокала в Санкт-Петербурге


TAB INFO
Band: Professional Murder Music
Song: Everything In The World
Album: Professional Murder Music
Year: 2001
Tab Type: Bass
Tuning: DADG
Length: 3:19
Tabbed By: Dustin (theNemesis013@hotmail.com)

Riff 1
G -|-----------------|
D -|-----------------|
A -|-3---------------|
D -|----------6----1-|

Riff 2
G -|-------------------------|
D -|-------------------------|
A -|-3-3-3-3-3-3-------------|
D -|-------------6-6-6-1-1-1-|

Riff 3
G -|---------------------|-------|
D -|---------------------|-------|
A -|-4p3-3-4p3-----------|-------|
D -|-----------1111-3333-|-6-1-|
   |          x3         |  x1   |

Riff 4
G -|-----------|
D -|-----------|
A -|-4p3-3-4p3-|
D -|-----------|

Riff 5
G -|----|
D -|----|
A -|-3~-|
D -|----|

Song Structure:
Riff 1: 0:00	x2
Riff 2: 0:13	x2
Riff 3: 0:26	x2
Riff 2: 0:53	x4
Riff 3: 1:20	x2
Riff 2: 1:46	x4
Riff 4: 2:13	x20
Riff 2: 2:46	x4
Riff 5: 3:12	x1

Добавлено: 19.10.2013
Вам также может быть интересно:
Другие материалы по этой песне:
  • Аккорды и текст

Страница создана 28.04.2012
http://primanota.ru/professional-murder-music/everything-in-the-world-chords.htm
Привет, Гость.
Предлагаем пройти революционный курс по гитаре.
Подарок от PrimaNota.Ru, забирай!