PrimaNota.ru - самый крупный в мире бесплатный архив песенных текстов, аккордов, табулатур и нот


Проект МанхеТТен - Приезжай - аккорды и текст, видео

Регистрация Запомнить меня
Войти через:  Facebook Google Twitter Vk Yandex Mail.ru

Проект МанхеТТен - Приезжай - аккорды и текст, видео

Печатать
Просмотров: 117
Уроки эстрадного вокала в Санкт-Петербурге
Приезжай
Проект МанхеТТен
E |------------------------------------------------------------|
B |-----------------0----------------------------0-------------|
G |-----------4---------4-----------------2----------2---------|
D |--------2--------------------------0-------------------0----|
A |--0--------------------------3------------------------------|
E |------------------------------------------------------------|

E |-----------------------------------------------------------------|
B |-----------------------------------------------------------------|
G |-------------------------------------------------------0---------|
D |------------2-----0---2---0------------------0----------0--------|
A |--------0---------------------------------0--------------------0-|
E |--3--------------------------------0-----------------------------|

E |----------------------------------------------------------------------------|
B |-----------------------------------------------------0----------------------|
G |-------------------0--------------------------0----------0------------------|
D |-------------4---------4-----------------2--------------------2-------------|
A |---------0------------------0------0----------------------------------------|
E |---3----------------------------------------------------------------------0-|

Am     C            G          Em            C
1.Город рассветов умоется чистой холодной росой.
        Am        Em                        Am
В небе кометы - их смоет зеленой, соленой волной.
           C              G      Em       C
И воздух прозрачен, и утро туманно, как лес над рекой.
         Am         Em
Что это значит? Я не прощаюсь сегодня с тобой.

Припев 1:
Am       C  G Em          C
Приезжай...Я буду тебя ждать!
      Am Em                  Am
Замечай мои настроения, мою суть.
         C  G           Em       C
Расскажу легенд, которых ты не знал.
        Am Em
Приезжай! Твой город по тебе скучал!

Am       C             G               Em     C
2.Время проходит, и вместе с ним проходит печаль.
      Am     Em                       Am
Годы уносят воспоминания, которых не жаль.
           C         G          Em    C
Память оставит что-то родное мое о тебе.
         Am              Em
Трудно представить что через годы останется мне.

Припев 2:
Am       C  G Em           C
Приезжай...Я буду тебя ждать!
     Am Em                   Am
Замечай мои настроения, мою суть.
         C  G            Em     C
Расскажу легенд, которых ты не знал.
        Am Em
Приезжай!Твой город по тебе скучал!

Припев 3:
Am       C  G Em             
Приезжай...Я буду тебя ждать!
 Dm    F C             Am    F
Замечай мои настроения, мою суть.
         Dm  Am                Dm
Расскажу легенд, которых ты не знал.
        F  C          Am    F Dm Am
Приезжай!Твой город по тебе скучал!
Добавлено: 13.10.2015
Другие материалы по этой песне:

Страница создана 13.10.2015
http://primanota.ru/proekt-manxetten/priezzhai-chords.htm
Привет, Гость.
Предлагаем пройти революционный курс по гитаре.
Подарок от PrimaNota.Ru, забирай!