PrimaNota.ru - самый крупный в мире бесплатный архив песенных текстов, аккордов, табулатур и нот


Procession - Raven Of Disease - таба, видео

Регистрация Запомнить меня
Войти через:  Facebook Google Twitter Vk Yandex Mail.ru

Procession - Raven Of Disease - таба, видео

Печатать
Просмотров: 103
-----------------------------------------------------------------------------------------------------------
Song: Raven of Disease
Band: Procession
Album: Cult of Disease
Tabbed by: TrollFaceJesus
E-mail: trollfacejesus@gmail.com


Hey everyone, this is my tab for this song, and I think everything sounds pretty awesome. All of the rhythm
sections in the song are here, but I didn't tab out the solo. Hopefully everything in here is accurate, and
you guys find this tab to be helpful! If you have any comments, questions, or corrections to point out,
please feel free to leave a message here, or to send me an email! :D


Tuning: E-Standard


Riff 1a (Guitar 1)
|------------------------------------------------------------------------|
|------------------------------------------------------------------------|
|------------------------------------------------------------------------| x1
|----------------------------------2-------2---4---5---4--4h5-2---1---2--|
|--2-------2---------------2---0-----------------------------------------|
|--0---------------3---2---------------0---------------------------------|


Riff 1a (Guitar 2)
|------------------------------------------------------------------------|   [Note: Guitar 2 only plays
|------------------------------------------------------------------------|    this once at the beginning
|------------------------------------------------------------------------| x1 of the song, and then copies
|--2-------------------------------2----------------------------------2--|    Guitar 1 throughout the rest
|--2-------------------------------2----------------------------------2--|    of the song.]
|--0-------------------------------0----------------------------------0--|



Riff 1b (Guitar 1)
|-------------------------------------------------|
|-------------------------------------------------|
|-------------------------------------------------| x1
|------------------------------2-------2---5---4--|
|--2---2---------------2---0---------------3---2--|
|--0-----------3---2---------------0--------------|


Riff 1b (Guitar 2)
|-------------------------------------------------|
|-------------------------------------------------|    [Note: Guitar 2 only plays this once
|------------------------------------------5---4--| x1  at the beginning of the song, and
|------------------------------2-2---------5---4--|     then copies Guitar 1 throughout the
|------------------------------2-2---------3---2--|     rest of the song.]
|------------------------------0-0----------------|


Riff 1a x 1

Riff 1b x 1


Riff 1c
|-----------------------------------------------------------------|
|-----------------------------------------------------------------|
|--------------------------------------------------0---2---4---5--| x1
|----------------------------------2-------2---4------------------|
|--2-------2---------------2---0----------------------------------|
|--0---------------3---2---------------0--------------------------|


Riff 1b x 1


Riff 2a
|-------------------------------------------------------------------|
|-------------------------------------------------------------------|
|-------------------------------------------------------------------| x1
|--4-------5-4-----4-------5-4-----5-------5---------------7---7----|
|--2-------3-2-----2-------3-2-----3-------3---7-5-4-------5---5----|
|--------0---------------0-------0-------------5-3-2-----0-------0--|


Riff 2b
|-------------------------------------------------------------------|
|-------------------------------------------------------------------|
|-------------------------------------------------------------------| x1
|--4-------5-4-----4-------5-4-----5-------5---------------8---8----|
|--2-------3-2-----2-------3-2-----3-------3---7-5-4-------6---6----|
|--------0---------------0-------0-------------5-3-2-----0-------0--|


Riff 2a x 1


Riff 2c
|-------------------------------------------------------------------|
|-------------------------------------------------------------------|
|-------------------------------------------------------------------| x1
|--4-------5-4-----4-------5-4-----5-------5---------------8---8----|
|--2-------3-2-----2-------3-2-----3-------3---7-5-4---4---6---6----|
|--------0---------------0-------0-------------5-3-2---2-0-------0--|


Riff 1a x 1

Riff 1b x 1

Riff 1c x 1

Riff 1b x 1


Riff 2d
|-------------------------------------------------------------------|
|-------------------------------------------------------------------|
|-------------------------------------------------------------------| x1
|--2-------------------------------5-------5---------------7---7----|
|--2-------------------------------3-------3---7-5-4---4---5---5----|
|--0-------------------------------------------5-3-2---2-0-------0--|


Riff 2c x 1

Riff 2a x 1

Riff 2c x 1


Riff 3
|-----------------------------------------------------------------------------|
|-----------------------------------------------------------------------------|
|-----------------------------------------------------------------------------| x4
|----------4-5---------4---4-44-----------------4-5---------4---4-44-9\88-8\--|
|--2-----0-2-3-----0-0-2---2-22---------2-----0-2-3-----0-0-2---2-22-7\66-6\--|
|--0---0---------0--------------3---2---0---0---------0-----------------------|
       .         .                          .         .


Riff 4a
|-------------------------------------------------------------|
|-------------------------------------------------------------|
|-------------------------------------------------------------| x4
|--5-----------5\4-4-------------------------------3-------4--|
|--3-----------3\2-2---------------2---------------1-------2--|
|--------------------------3---2---0--------------------------|


Riff 4b
|-----------------------------------------------------|
|-----------------------------------------------------|
|-----------------------------------------------------| x4
|--5-----------5\2-2----------------------------------|
|--3-----------3\2-2---------------2-------4-------5--|
|--------------------------3---2---0-------2-------3--|


Riff 3 x 4


Riff 5a
|-----------------------------------------------------------------|
|-----------------------------------------------------------------|
|-----------------------------------------------------------------| x3
|--9-------9-------9-------9---8---9-------9-------9--------------|
|--7-------7-------7-------7---6---7-------7-------7-----------4--|
|------------------------------------------------------3---6------|


Riff 5b
|-------------------------------------------------------------|
|-------------------------------------------------------------|
|-------------------------------------------------------------| x1 [Note: the tempo gradually slows
|--9-------9-------9-------9---8---9-------9------------------|     down during this riff.]
|--7-------7-------7-------7---6---7-------7---------------1--|
|--------------------------------------------------0---3------|
                                                   .   .

And that's it!


************************************

| /   slide up
| \   slide down
| h   hammer-on
| p   pull-off
| v   vibrato
| +   harmonic
| ·   mute note
| b   bend
| pb  pre-bend
| br  bend release
| pbr pre-bend release
| brb bend release bend

************************************
Добавлено: 13.07.2015
Вам также может быть интересно:
Другие материалы по этой песне:
  • Аккорды и текст

Страница создана 13.07.2015
http://primanota.ru/procession/raven-of-disease-chords.htm
Привет, Гость.
Предлагаем пройти революционный курс по гитаре.
Подарок от PrimaNota.Ru, забирай!