PrimaNota.ru - самый крупный в мире бесплатный архив песенных текстов, аккордов, табулатур и нот


Procession - Like A Plague Upon The Earth - таба, видео

Регистрация Запомнить меня
Войти через:  Facebook Google Twitter Vk Yandex Mail.ru

Procession - Like A Plague Upon The Earth - таба, видео

Печатать
Просмотров: 113
---------------------------------------------------------------------------------------------
Song: Like a Plague upon the Earth
Band: Procession
Album: Cult of Disease
Tabbed by: TrollFaceJesus
E-mail: trollfacejesus@gmail.com


Hey everyone, this is my tab for this song, and I think it sounds pretty awesome. All of
the rhythm sections in the song are here, but I didn't tab out the solo. Hopefully everything
in here is accurate, and you guys find this tab to be helpful! If you have any comments, 
questions, or corrections to point out, please feel free to leave a message here, or to send 
me an email! :D


Tuning: Eb


Riff 1
|----------------------------------------------------------------------------------------|
|----------------------------------------------------------------------------------------|
|----------------------------------------------------------------------------------------| x2
|----------------------------------------------------------------------------------------|
|-------------------------------------------------------------------------------6--6--3--|
|--0-0-0--3p0-0--7p0-0--0-0-0--3p0-0--7p0-0--0-0-0--3p0-0--7p0-0--0-0-0--3p0-0--4--4--1--|
   . . .      .      .  . . .      .      .  . . .      .      .  . . .      .


Riff 2a
|----------------------------------------------------------------------------------------|
|----------------------------------------------------------------------------------------|
|----------------------------------------------------------------------------------------| x1
|--------------------0--------------------0--------------------0-------------------------|
|----------------2h3------------------2h3------------------2h3------------------6--6--1--|
|--0-0-0--3p0-0---------0-0-0--3p0-0---------0-0-0--3p0-0---------0-0-0--0-0-0--4--4--1--|


Riff 2b
|----------------------------------------------------------------------------------------------|
|----------------------------------------------------------------------------------------------|
|----------------------------------------------------------------------------------------------| x1
|--------------------0--------------------0--------------------0-------------------------------|
|----------------2h3------------------2h3------------------2h3------------------6--6--6--6--3--|
|--0-0-0--3p0-0---------0-0-0--3p0-0---------0-0-0--3p0-0---------0-0-0--0-0-0--4--4--4--4--1--|


Riff 3
|-------------------------------------------------------------------|
|-------------------------------------------------------------------|
|-------------------------------------------------------------------| x4
|-------------4/5-------------7/9-------------9/10------------------|
|--2----------2/3-------------5/7-------------7/8-------------6tr7--|
|--0---3-2-0-------0---3-2-0-------0---3-2-0-------0---3-2-0--------|


Riff 4a
|-------------------------------------|
|-------------------------------------|
|-------------------------------------| x1
|-------------------------------------|
|--2----------------------------------|
|--0---0-0-0-0-0-0--1-1-1-1--4-4-4-4--|
       . . . . . .  . . . .  . . . .


Riff 4b
|--------------------------------------|
|--------------------------------------|
|--------------------------------------| x5
|--------------------------------------|
|--------------------------------------|
|--0-0-0-0--0-0-0-0--1-1-1-1--4-4-4-4--|
   . . . .  . . . .  . . . .  . . . .


Riff 4c
|-------------------------------------|
|-------------------------------------|
|-------------------------------------| x1
|-------------------------------------|
|-------------------------------------|
|--0-0-0-0--0-0-0-0--1-1-1-1--1/4--1--|
   . . . .  . . . .  . . . 


Riff 3 x 4

Riff 4a x 1

Riff 4b x 5

Riff 4c x 1

Riff 3 x 4


Riff 5a
|-------------------------------------------------------------------|
|-------------------------------------------------------------------|
|-------------------------------------------------------------------| x1
|------------------------------2---4-------4---4-4/8-------9--------|
|--2-------2---5---4-------4---3---2-------2---2-2/6-------7--------|
|--0-------0---3---2-------2----------------------------------------| 


Riff 5b
|-------------------------------------------------------------------|
|-------------------------------------------------------------------|
|-------------------------------------------------------------------| x1
|------------------------------3---4-------4---4-4/10------9--------|
|--2-------2-------4-------4---1---2-------2---2-2/8-------7--------|
|--0-------0---0h4-2-------2----------------------------------------|


Riff 5a x 1


Riff 5c
|-----------------------------------------------------------------------------|
|-----------------------------------------------------------------------------|
|-----------------------------------------------------------------------------| x1
|------------------------------3---4-------4---4-4/10------9-------10------9--|
|--2-------2-------4-------4---1---2-------2---2-2/8-------7-------8-------7--|
|--0-------0---0h4-2-------2--------------------------------------------------|


Riff 6
|-----------------------------------|
|-----------------------------------|
|-----------------------------------| x1
|--4-------5------------------------|
|--2-------3-------4-------5--------|
|------------------2-------3--------|


Riff 7a
|-----------------------------------|
|-----------------------------------|
|-----------------------------------| x2
|-----------------------------------|
|----------6---------------7--------|
|--5---------------6----------------|


Riff 7b
|-----------------------------------|
|-----------------------------------|
|-----------------------------------| x2
|-----------------------------------|
|----------3---------------4--------|
|--2---------------4----------------|


Riff 7a x 2

Riff 7b x 2


Riff 8a
|----------------------------------|
|----------------------------------|
|----------------------------------| x4
|-------------------5---5\4-5\4-2--|
|----7-----7-9-10\--3---3\2-3\2-0--|
|--0-------------------------------|
   .

Riff 8b
|-----------------------------------|
|-----------------------------------|
|-----------------------------------| x8
|----9-----9-10-12\--5---5\4-5\4-2--|
|----7-----7-9--10\--3---3\2-3\2-0--|
|--0--------------------------------|
   .

Riff 5a x 1

Riff 5b x 1

Riff 5a x 1

Riff 5c x 1


Riff 9
|-----------------------------------|
|-----------------------------------|
|-----------------------------------| x3
|--10------9-------10------9--------|
|--8-------7-------8-------7--------|
|-----------------------------------|


|-----|
|-----|
|-----| The song then ends on an Eb.
|--2--|
|--2--|
|--0--|


And that's it!


************************************

| /   slide up
| \   slide down
| h   hammer-on
| p   pull-off
| v   vibrato
| +   harmonic
| ·   mute note
| b   bend
| pb  pre-bend
| br  bend release
| pbr pre-bend release
| brb bend release bend

************************************
Добавлено: 13.07.2015
Другие материалы по этой песне:
  • Аккорды и текст

Страница создана 13.07.2015
http://primanota.ru/procession/like-a-plague-upon-earth-chords.htm
Привет, Гость.
Предлагаем пройти революционный курс по гитаре.
Подарок от PrimaNota.Ru, забирай!