PrimaNota.ru - самый крупный в мире бесплатный архив песенных текстов, аккордов, табулатур и нот


Procession - Incinerate - таба, видео

Регистрация Запомнить меня
Войти через:  Facebook Google Twitter Vk Yandex Mail.ru

Procession - Incinerate - таба, видео

Печатать
Просмотров: 59
------------------------------------------------------------------------------
Song: Incinerate
Band: Procession
Album: Cult of Disease
Tabbed by: TrollFaceJesus
E-mail: trollfacejesus@gmail.com


You can find Procession's music and learn more about them at these sites:

http://www.metal-archives.com/bands/Procession/126977
http://www.myspace.com/processionburn
https://www.facebook.com/pages/Procession/141525302533057


Hey everyone, this is my tab for this song, and I think it sounds pretty 
awesome. Hopefully everything here is accurate, and that you guys find it 
to be helpful! If you have any comments, questions, or corrections to point 
out, please feel free to leave a message here, or to send me an email! :D


Tuning: Eb


Riff 1a
|----------------------------------------------|
|----------------------------------------------|
|----------------------------------------------| x1
|----------------------------------------------|
|------5------5---5-4---------5------5---4tr5--|
|--5h7---7------0-------0h5h7---7------0-------|
                .                      .

Riff 1b
|-------------------------------------------|
|-------------------------------------------|
|-------------------------------------------| x1
|-------------------------------------------|
|------5------5---5-4---------5------5---4--|
|--5h7---7------0-------0h5h7---7------0----|
                .                      .

Riff 1c
|------------------------------------------------|
|------------------------------------------------|
|------------------------------------------------| x1
|------------------------------------------------|
|--------5------5---5-4---------5------5---4tr5--|
|--0h5h7---7------0-------0h5h7---7------0-------|
                  .                      .

Riff 1b x 1

Riff 1a x 2

Riff 1b x1

Riff 1a x1

Riff 1b x1

Riff 1c x1


Riff 2
|----------------------|
|----------------------|
|-------------------7--| x2
|--2--4--5----2--4--7--|
|--2--4--5----2--4--5--|
|--0--2--3----0--2-----|


Riff 1a x 1

Riff 1b x 1

Riff 1c x 1

Riff 1a x 1

Riff 1b x 1

Riff 1c x 1

Riff 2 x 3


Riff 2b
|---------------------|
|---------------------|
|-------5----------5--| x1
|--2--5-5-----2--5-5--|
|--2--5-3-----2--5-3--|
|--0--3-------0--3----|


Riff 2c
|----------------------|
|----------------------|
|-------------------8--| x1
|--2--4--5----2--4--8--|
|--2--4--5----2--4--6--|
|--0--2--3----0--2-----|


Riff 2b x 1


Riff 3a
|------------------------------|
|------------------------------|
|------7/9-9-9--------7/9-9-9--| x3
|--2---7/9-9-9----2---7/9-9-9--|
|--2---5/7-7-7----2---5/7-7-7--|
|--0--------------0------------|


Riff 3b
|-------------------------------------|
|-------------------------------------|
|------7/9-9-9--------7/9-9-9---9999--| x1
|--2---7/9-9-9----2---7/9-9-9---9999--|
|--2---5/7-7-7----2---5/7-7-7---7777--|
|--0--------------0-------------------|


Riff 4a
|--------------------------------------------------------|
|--------------------------------------------------------|
|------7/9-9----------------------------4-4-4-4/7-7-7/9--| x3
|--2---7/9-9-------4h5p4-----5------4---4-4-4-4/7-7-7/9--|
|--2---5/7-7---5h7-------7p5-3--3h5-2---2-2-2-2/5-5-5/7--|
|--0-----------------------------------------------------|


Riff 4b
|--------------------------------------|
|--------------------------------------|
|------7/9-9---------------------------| x1
|--2---7/9-9-------4h5p4-----5------4--|
|--2---5/7-7---5h7-------7p5-3--3h5-2--|
|--0-----------------------------------|

Riff 5a
|------------------------------------------------------------|
|------------------------------------------------------------|
|------------------------------------------------------------| x1
|--4-2-2--2-5-4--4-2-2--2-5-4--4-2-2--2-5-4-5-7--5-4-7--7-9--|
|--2-0-0--0-3-2--2-0-0--0-3-2--2-0-0--0-3-2-3-5--3-2-5--5-7--|
|------------------------------------------------------------|


Riff 4a x 3

Riff 4b x 1


Riff 5b
|-----------------------------------------------------|
|-----------------------------------------------------|
|-----------------------------------------------------| x1
|--4-2-2--2-5-4--4-2-2--2-5-4--4-2-2--2-5-4-5-7--5-4--|
|--2-0-0--0-3-2--2-0-0--0-3-2--2-0-0--0-3-2-3-5--3-2--|
|-----------------------------------------------------|


Riff 5c
|-------------------------------------------------|
|-------------------------------------------------|
|-------------------------------------------------| x1
|--2--2-5-4--4-2-2--2-5-4--4-2-2--2-5-4-5-7--5-4--|
|--0--0-3-2--2-0-0--0-3-2--2-0-0--0-3-2-3-5--3-2--|
|-------------------------------------------------|


Riff 6
|-----------------|
|-----------------|
|----------3---7--|
|--2---5---3---7--| x1
|--2---5---1---5--|
|--0---3----------|


|-----|
|-----|
|-----| Song ends on Eb.
|--2--|
|--2--|
|--0--|


And that's it!


************************************

| /   slide up
| \   slide down
| h   hammer-on
| p   pull-off
| v   vibrato
| +   harmonic
| ·   Mute note
| b   Bend
| pb  Pre-bend
| br  Bend release
| pbr Pre-bend release
| brb Bend release bend

************************************
Добавлено: 04.10.2013
Другие материалы по этой песне:
  • Аккорды и текст

Страница создана 04.10.2013
http://primanota.ru/procession/incinerate-chords.htm
Привет, Гость.
Предлагаем пройти революционный курс по гитаре.
Подарок от PrimaNota.Ru, забирай!