PrimaNota.ru - самый крупный в мире бесплатный архив песенных текстов, аккордов, табулатур и нот


Pro Patria - Kanga Ner - таба, видео

Регистрация Запомнить меня
Войти через:  Facebook Google Twitter Vk Yandex Mail.ru

Pro Patria - Kanga Ner - таба, видео

Печатать
Просмотров: 77
Уроки эстрадного вокала в Санкт-Петербурге
Kanga Ner By: Pro Patria.

Intro bass riff:
    E              B  C                G             D  B
G|-----------------------------------------------------------------------|
D|-------------------------------------5--5-5--5-5-5-0-------------------|
A|-----------------2--3--3-3--3-3-3-3-------------------2--2-2--2-2-2-2--|
E|--0--0-0--0-0-0--------------------------------------------------------|

Intro:
   E                   C                   G                   B
E|---------------------------------------------------------------------------------|
B|---------------------------------------------------------------------------------|
G|---------------------------------------------------------------------------------|
D|---------------------5-5-5-5-5-5-5-5-5-5---------------------4-4-4-4-4-4-4-4-4-4-|
A|-2-2-2-2-2-2-2-2-2-2-3-3-3-3-3-3-3-3-3-3-5-5-5-5-5-5-5-5-5-5-2-2-2-2-2-2-2-2-2-2-|
E|-0-0-0-0-0-0-0-0-0-0---------------------3-3-3-3-3-3-3-3-3-3---------------------|
   . . . . . . . . . . . . . . . . . . . . . . . . . . . . . . . . . . . . . . . .
lead:
E|------------------------------|
B|------------------------------|
G|----------------12------------|
D|--------------------10--9--9--|
A|--7--9--10--12----------------|
E|------------------------------|

Verse:
   E           B C
E|---------------------------------------------------------|
B|---------------------------------------------------------|
G|---------------------------------------------------------|
D|-------------4-5-5-5-5-5-5-5---------------4-4-4-4-4-4-4-|
A|-2-2-2-2-2-2-2-3-3-3-3-3-3-3-5-5-5-5-5-5-5-2-2-2-2-2-2-2-|
E|-0-0-0-0-0-0-----------------3-3-3-3-3-3-3---------------|
     . . . . .
Chorus:
    C     D     E
E|-----------------|
B|-----------------|
G|-----------------|
D|--5--5--7--7--9--|
A|--3--3--5--5--7--|
E|--------------0--|

By:themechanix100
Добавлено: 29.11.2013
Другие материалы по этой песне:
  • Аккорды и текст

Страница создана 29.11.2013
http://primanota.ru/pro-patria/kanga-ner-chords.htm
Привет, Гость.
Предлагаем пройти революционный курс по гитаре.
Подарок от PrimaNota.Ru, забирай!