PrimaNota.ru - самый крупный в мире бесплатный архив песенных текстов, аккордов, табулатур и нот


Pro-pain - Pound For Pound - текст песни, таба, видео

Регистрация Запомнить меня
Войти через:  Facebook Google Twitter Vk Yandex Mail.ru

Pro-pain - Pound For Pound - текст песни, таба, видео

Печатать
Просмотров: 190
POUND FOR POUND
by PRO-PAIN
DROP D TUNING

Ok here we have most of the song - I felt it was necessary to tab this as no-one has it
on the internet! As i only have this song as the intro on a DVD ('Airriad' an extreme
by Fox) and I'm not all that amazing at guitar, i havent tabbed the solo - any ideas on 
are welcomed (please email me or leave a comment).

INTRO
e|--------|-----------------------------------------------|
B|--------|-----------------------------------------------|
G|--------|-----------------------------------------------|
D|--5--4--|--4—-5--7--5--4—( X 3 )------------------------|
A|--3--2--|--2--3--5--3--2--------------------------------|
D|--------|-----------------------------------------------|

BEFORE VERSE
e|----------|---------------------------------------------|
B|----------|---------------------------------------------|
G|----------|---------------------------------------------|
D|--4--5--7-|---------------------------------------------|
A|--2--3--5-|-2-2/6--2--0-----2-2-2-2/3/2-----------------|
D|----------|-2—2/6--2--0-----2-2-2-2/3/2-----------------|
   ^^ X1 ^^   ^ ^ ^ ^ ^ ^ ^  X 3 ^ ^ ^ ^ ^ ^ ^

PICKSLIDE!!

VERSE

e|--------------------|-----------------------------------|
B|--------------------|-----------------------------------|
G|--------------------|-----------------------------------|
D|--------------------|-----------------------------------|
A|--3--2-2-2-2-2-2-2--|--5/4/3/2--2-2-2-2-2---------------|
D|--3--2-2-2-2-2-2-2--|--5/4/3/2--2-2-2-2-2---------------|
          ^palm mute^             ^palm mute^

        ^ ^ X 1 ^ ^        ^ ^ ^ ^ ^ X 3 ^ ^ ^ ^ ^

LEAD BIT AT END OF ABOVE SECTION
(play this over the top if you have two guitarists)
e|--------------------------------------------------------|
B|---------------------------9-9--------------------------|
G|---------------------8h9p8-----10-----------------------|
D|--------------------------------------------------------|
A|------5/4/3/2-------------------------------------------|
D|------5/4/3/2-------------------------------------------|

THEN SOLO

ENDING (lead bit)
e|--------------------------------------------------------|
B|--------9-9----9b---------------------------------------|
G|--8h9p8-----10------------------------------------------|
D|--------------------------------------------------------|
A|--------------------------------------------------------|
D|--------------------------------------------------------|
Добавлено: 29.06.2012
Другие материалы по этой песне:
  • Аккорды и текст

Страница создана 21.06.2012
http://primanota.ru/pro-pain/pound-for-pound-chords.htm
Привет, Гость.
Предлагаем пройти революционный курс по гитаре.
Подарок от PrimaNota.Ru, забирай!