PrimaNota.ru - самый крупный в мире бесплатный архив песенных текстов, аккордов, табулатур и нот


Priscilla Ahn - In A Tree - аккорды и текст, таба, видео

Регистрация Запомнить меня
Войти через:  Facebook Google Twitter Vk Yandex Mail.ru

Priscilla Ahn - In A Tree - аккорды и текст, таба, видео

Печатать
Просмотров: 206
In A Tree
Priscilla Ahn
-------------------------------------------------------------------------------
                       IN A TREE - Priscilla Ahn
-------------------------------------------------------------------------------
Tabbed by: Erik Silkensen
Email: erik.silkensen@gmail.com

Tuning: Standard

Capo VI

Notes:  I'm not sure how accurate this is / or if all the chord names are
  correct...it's a start anyway!  She does a Travis-style finger picking
  that I think you can probably figure out, walking up and down to some
  chords with occasional hammer-ons (though the last chorus is strummed).
  Of course any comments / corrections are appreciated!

Chords:

    C      C/G    C6/G   Am     G      B      A      A7     D7/F#  Em     Em7
e|--0------0------0------0------3------x------0------3------x------0------0--|
B|--1------1------1------1------3------4------2------2------1------0------3--|
G|--0------0------0------2------0------4------2------2------2------0------0--|
D|--2------2------2------2------0------4------2------2------0------2------2--|
A|--3------3------0------0------2------2------0------0------x------2------2--|
E|--x------3------3------x------3------x------x------x------2------0------0--|

Intro: C Am C x2 G

 G
Living in a tree
 B
Yeah that's where I'd like to be
 C              G
When the world falls down
 G
No one can say nothing
 B
Which I guess means they'll say something
 C            G
But I won't be around

 C           G
I'll be in my tree
 C      G
Living free
       A                    A7    C   Am   G
As any child would wanna be

 G
Chaos in the streets
 B
Lonely hearts bear lonely beats
 C                               G
In a world carved with steel and stone
 G
Miscommunication leads to
 B
Fear and hesitation
 C                     G
And it won't leave me alone

 C           G
But now in my tree
 C          G
I'm living free
       A                    A7
As any child would wanna be

 Am            D7/F#         G              Em
Maybe you and me can make a home for us and someday three
 Am                       D7/F#                 
From the strongest wood of the tallest tree
 B         Em    Em7   A   A7
And we'll be

 C/G  C6/G   Am
Living in a tree
 C/G  C6/G   G
Living free
      A                     A7
As any child would wanna be

Outro: C Am C ... C/G
Добавлено: 06.03.2012
Другие материалы по этой песне:
  • Аккорды и текст

Страница создана 06.03.2012
http://primanota.ru/priscilla-ahn/in-a-tree-chords.htm
Привет, Гость.
Предлагаем пройти революционный курс по гитаре.
Подарок от PrimaNota.Ru, забирай!