PrimaNota.ru - самый крупный в мире бесплатный архив песенных текстов, аккордов, табулатур и нот


Priory - Weekend - аккорды и текст, таба, видео

Регистрация Запомнить меня
Войти через:  Facebook Google Twitter Vk Yandex Mail.ru

Priory - Weekend - аккорды и текст, таба, видео

Печатать
Просмотров: 115
Weekend
Priory
-------------------------------------------------------------------------------
                           Weekend - Priory
-------------------------------------------------------------------------------


Tuning: Standard

e|---------------------------------------------------------------------------|
B|--10-10-10-10-10-10--------------------------------10-10-10-10-10----------|
G|--------------------11-9-11--11-11-11-11-11-9-7-9-----------------11-9-11--|
D|---------------------------------------------------------------------------|
A|---------------------------------------------------------------------------|
E|---------------------------------------------------------------------------|

e|---------------------------------------------------------------------------|
B|-----------------10-----10-10-10-10-10-------------------------------------|
G|-11b12-9-11-9-11----11-----------------11-9-11-11-11-11-11-11-9-7-9--------|
D|---------------------------------------------------------------------------|
A|---------------------------------------------------------------------------|
E|---------------------------------------------------------------------------|

e|---------------------------------------------------------------------------|
B|-10-10-10-10-10------------------------------------------------------------|
G|----------------11-9-11-11-11-9-7------------------------------------------|
D|---------------------------------------------------------------------------|
A|---------------------------------------------------------------------------|
E|---------------------------------------------------------------------------|

Chord progression throughout the whole song is Capo 2: C D F

Intro: C D F C
       C D F F

C                      D              F
And all the kids now they come running
                  C
It's the weekend, it's the weekend !
C                    D                F
And all the parents they keep calling,
                  F
but there's no answer 'cause it's the weekend


C D F C
C D F F


             C             
Working class to the bone
         D                     
and I know you're tired of hearing it
F                C
It's the weekend, it's the weekend!
C                      D
This right here is the D.O Proletariat 
F                 F
It's the weekend, come on the weekend!


C                               F
Hell yeah, I just got paid it's time to get this started
C                  
Wait 'till I stake my claim
F
Forget that I was ever your whipping boy



C
Tonight I might just lose my way,
F
but I'll never get down hearted
C
Good friends keep enemies at bay
F
Forget that I was ever your whipping boy


C
Rest when we're old, should do as were told
F
But I just can't help it, I'll reach for the stove
C
The night closes in, now for the second act
F
Tell our friends go ahead 'cause we're hanging back
C
Youth like a spark it lights up the dark
F
We unlock the mystery,
C
I knew that you'd miss me
F
My mouth on your neck
C
Your touch on my check
F
Let hands guide the way
C
As we play hide and seek
F
Oh baby please stay true
C
What you gonna do when I come for you uh oh
F
Ooh baby please stay true
C
What you gonna do yeah my arrows shoot for you
F
Ooh oh my arrows shoot so true
C
Ooh oh these arrows shoot for you
F
Ooh oh my arrow shoots so true 


C                               F
Hell yeah, I just got paid it's time to get this started
C                  
Wait 'till I stake my claim
F
Forget that I was ever your whipping boy



C
Tonight I might just lose my way,
F
but I'll never get down hearted
C
Good friends keep enemies at bay
F
Forget that I was ever your whipping boy




************************************

| /   slide up
| \   slide down
| h   hammer-on
| p   pull-off
| ~   vibrato
| +   harmonic
| x   Mute note
| b   Bend
| pb  Pre-bend
| br  Bend release
| pbr Pre-bend release
| brb Bend release bend

************************************
Добавлено: 10.09.2014
Другие материалы по этой песне:
  • Аккорды и текст

Страница создана 10.09.2014
http://primanota.ru/priory/weekend-chords.htm
Привет, Гость.
Предлагаем пройти революционный курс по гитаре.
Подарок от PrimaNota.Ru, забирай!