PrimaNota.ru - самый крупный в мире бесплатный архив песенных текстов, аккордов, табулатур и нот


Prinz Pi - Kompass Ohne Norden - таба, видео

Регистрация Запомнить меня
Войти через:  Facebook Google Twitter Vk Yandex Mail.ru

Prinz Pi - Kompass Ohne Norden - таба, видео

Печатать
Просмотров: 215
Prinz Pi - Kompass ohne Norden


Intro: Am        F         C          G
E||-----------------------------------3---|
B||----------1---------1---------1----3---|
G||--------2---------2---------0------0---|
D||------2---------3---------2--------0---|
A||----0---------3---------3----------2---|
E||-----------------------------------3---|

E||-------------------------------3-------|
B||----------1---------1----------3-------|
G||--------2---------2---------0--0-------|
D||------2---------3---------2----0-------|
A||----0---------3---------3------2-------|
E||-------------------------------3-------|



Refrain(dazu Solo):  Am F C G | x4

Solo:

E||-----------------------------------------------| |Den ersten Ton(/7)immer
B||----------------6-6--/8--5--5------------------| |nur beim ersten
G||-------------5----------------7-5-7-s9--7-7-5--| |Durchspielen
D||----/7--5-7------------------------------------| |
A||-----------------------------------------------| |
E||-----------------------------------------------| |
                                                     \ |x2
                                                     /
E||-----------------------------------------------| |
B||------------6-6--/8--5--5----------------------| |
G||---------5----------------7-5-7-s9--5----------| |
D||-----5-7---------------------------------------| |
A||-----------------------------------------------| |
E||-----------------------------------------------| |



Strophe : Am F C G | x10

Refrain(dazu Solo):  Am F C G | x4

Bridge:(wie Intro)
       Am        F         C          G
E||-----------------------------------3---|-- |
B||----------1---------1---------1----3---|-- |
G||--------2---------2---------0------0---|-- |
D||------2---------3---------2--------0---|-- |
A||----0---------3---------3----------2---|-- |
E||-----------------------------------3------ | \
                                             |x4
E||-------------------------------3---------- | /
B||----------1---------1----------3-------|-- |
G||--------2---------2---------0--0-------|-- |
D||------2---------3---------2----0-------|-- |
A||----0---------3---------3------2-------|-- |
E||-------------------------------3-------|-- |



Refrain(dazu Solo):  Am F C G | x4

Strophe: Am F C G | x4

Solo

Refrain(dazu Solo):  Am F C G | x4

Ende auf Am

-Habe mir die Tabs selber rausgehört.Es kann also sein, dass es nicht 100% richtig ist, 
aber hört sich eigentlich ganz okay an ;)
Hier meine Version von "Prinz Pi - Kompass ohne Norden" mit diesen Tabs:

http://www.youtube.com/watch?v=C6TXLSRTp4I
Добавлено: 28.08.2013
Другие материалы по этой песне:
  • Аккорды и текст

Страница создана 28.08.2013
http://primanota.ru/prinz-pi/kompass-ohne-norden-chords.htm
Привет, Гость.
Предлагаем пройти революционный курс по гитаре.
Подарок от PrimaNota.Ru, забирай!