PrimaNota.ru - самый крупный в мире бесплатный архив песенных текстов, аккордов, табулатур и нот


Prince - Private Joy - текст песни, бас-таба, видео

Регистрация Запомнить меня
Войти через:  Facebook Google Twitter Vk Yandex Mail.ru

Prince - Private Joy - текст песни, бас-таба, видео

Печатать
Просмотров: 81
Авторы музыки: Prince

                                   Private Joy
                                      Prince

Bass                                                              Prince 


As played by Prince

Intro

|-----------------|-----------------|-----------------|-----------------|
|-----9-7---9-----|-----------------|-----9-7---9-----|-----------------|
|-----------------|---7-----------7-|-----------------|---7-------------|
|-7-------------0-|(0)----0-5---5---|-7-------------0-|(0)----0-5-5-5-0-|
  E E E Q   Q   E   E E E E E E E E   E E E Q   Q   E   E E E E E E E E

                                                        6/4
|-----------------|-----------------|-----------------|---------------------|
|-----9-7---9-----|-----------------|-----9-7---9-----|---------------------|
|-----------------|---7-------------|-----------------|---7-----------------|
|-7-------------0-|(0)----0-5---5-0-|-7-------------0-|(0)----0-5---5---5-0-|
  E E E Q   Q   E   E E E E E E E E   E E E Q   Q   E   E E E E E E E E E E

Verse 1

|-----------------|-----------------|-----------------|-----------------|
|-----9-7---9-----|-----------------|-----9-7---9-----|-----------------|
|-----------------|---7-----------7-|-----------------|---7-------------|
|-7-------------0-|(0)----0-5---5---|-7-------------0-|(0)----0-5-5-5---|
  E E E Q   Q   E   E E E E E E E E   E E E Q   Q   E   E E E E E E E E

|-----------------|-----------------|-----------------|-----------------|
|-----9-7---9-----|-----------------|-----9-7---9-----|-----------------|
|-----------------|---7-------------|-----------------|---7-------------|
|-7-------------0-|(0)----0-5---5-5-|-7-------------0-|(0)----0-5-5-5-6-|
  E E E Q   Q   E   E E E E E E E E   E E E Q   Q   E   E E E E E E E E

|-----------------|-----------------|-----------------|-----------------|
|-----9-7---9-----|-----------------|-----9-7---9-----|-----------------|
|-----------------|---7-------------|-----------------|---7-------------|
|-7-------------0-|(0)----0-5---5-0-|-7-------------0-|(0)----0-5-5-5-0-|
  E E E Q   Q   E   E E E E E E E E   E E E Q   Q   E   E E E E E E E E

|-----------------|-----------------|-----------------|-----------------|
|-----9-7---9-----|-----------------|-----9-7---9-----|-----------------|
|-----------------|---7-------------|-----------------|---7-------------|
|-7-------------0-|(0)----0-5---5-0-|-7-------------0-|(0)----0-5-5-5-0-|
  E E E Q   Q   E   E E E E E E E E   E E E Q   Q   E   E E E E E E E E

Pre-Chorus 1

|-----------------|-----------------|-----------------|-----------------|
|-----5-5-----5-5-|-----5-------5---|-----9-7---9-----|-----------------|
|-----------------|-----------------|-----------------|---7-------------|
|-3-------3-3-----|-3-------3-------|-7-------------0-|(0)----0-5---5-0-|
  E E E E E E E E   E E E E E E E E   E E E Q   Q   E   E E E E E E E E 

|-----------------|-----------------|-----------------|-----------------|
|-----5-5-----5-5-|-----5-------5---|-----9-7---9-----|-----------------|
|-----------------|-----------------|-----------------|---7-------------|
|-3-------3-3-----|-3-------3-------|-7-------------0-|(0)------5---6---|
  E E E E E E E E   E E E E E E E E   E E E Q   Q   E   E E Q   E E E E 

|-----------------|-----------------|/6---6---4---4---|-2---------------|
|-----9-9-----9-9-|-----9-------9---|-----------------|-----------------|
|-----------------|-----------------|-----------------|-----------------|
|-7-------7-7-----|-7-------7-------|-----------------|-----------------|
  E E E E E E E E   E E E E E E E E   Q   Q   E E Q     W

Chorus 1

|-----------------|-----------------|-----------------|-----------------|
|-----9-7---9-----|-----------------|-----9-7---9-----|-----------------|
|-----------------|---7-------------|-----------------|---7-------------|
|-7-------------0-|(0)----0-5---5-0-|-7-------------0-|(0)----0-5-5-5-0-|
  E E E Q   Q   E   E E E E E E E E   E E E Q   Q   E   E E E E E E E E

                                                        6/4
|-----------------|-----------------|-----------------|---------------------|
|-----9-7---9-----|-----------------|-----9-7---9-----|---------------------|
|-----------------|---7-------------|-----------------|---7-----------------|
|-7-------------0-|(0)----0-5---5-0-|-7-------------0-|(0)----0-5---5---5-0-|
  E E E Q   Q   E   E E E E E E E E   E E E Q   Q   E   E E E E E E E E E E

Verse 2

|-----------------|-----------------|-----------------|-----------------|
|-----9-7---9-----|-----------------|-----9-7---9-----|-----------------|
|-----------------|---7-------------|-----------------|---7-------------|
|-7-------------0-|(0)----0-5---5-0-|-7-------------0-|(0)----0-x-x-5-0-|
  E E E Q   Q   E   E E E E E E E E   E E E Q   Q   E   E E E E E E E E

|-----------------|-----------------|-----------------|-----------------|
|-----9-7---9-----|-----------------|-----9-7---9-----|-----------7---8-|
|-----------------|---7-------------|-----------------|---7-------------|
|-7-------------0-|(0)----0-5---5-0-|-7-------------0-|(0)----0-5---6---|
  E E E Q   Q   E   E E E E E E E E   E E E Q   Q   E   E E E E E E E E

|-----------------|-----------------|-----------------|-----------------|
|-----9-7---9-----|-----------------|-----9-7---9-----|-----------------|
|-----------------|---7-------------|-----------------|---7-------------|
|-7-------------0-|(0)------5---5---|-7-------------0-|(0)----0-5-5-5-6-|
  E E E Q   Q   E   E E E E E E E E   E E E Q   Q   E   E E E E E E E E

|-----------------|-----------------|-----------------|-----------------|
|-----9-7---9-----|-----------------|-----9-7---9-----|-----------------|
|-----------------|---7-------------|-----------------|---7-------------|
|-7---------------|---------5---5-0-|-7-------------0-|(0)----0-5-5-5-5-|
  E E E Q   Q   E   E E E E E E E E   E E E Q   Q   E   E E E E E E E E

Pre-Chorus 2

|-----------------|-----------------|-----------------|-----------------|
|-----5-5-----5-5-|-----5-------5---|-----9-7---9-----|-----------------|
|-----------------|-----------------|-----------------|---7-------------|
|-3-------3-3-----|-3-------3-------|-7-------------0-|(0)----0-5---5-5-|
  E E E E E E E E   E E E E E E E E   E E E Q   Q   E   E E E E E E E E 

|-----------------|-----------------|-----------------|-----------------|
|-----5-5-----5-5-|-----5-------5---|-----9-7---9-----|-----------7---8-|
|-----------------|-----------------|-----------------|---7-------------|
|-3-------3-3-----|-3-------3-------|-7-------------0-|(0)----0-5---6---|
  E E E E E E E E   E E E E E E E E   E E E Q   Q   E   E E E E E E E E 

|-----------------|-----------------|/6--/6---4---4/6-|-2---------------|
|-----9-9-----9-9-|-----9-------9---|-----------------|-----------------|
|-----------------|-----------------|-----------------|-----------------|
|-7-------7-7-----|-7-------7-------|-----------------|-----------------|
  E E E E E E E E   E E E E E E E E   Q   Q   E E E E   W

Chorus 2

|-----------------|-----------------|-----------------|-----------------|
|-----9-7---9-----|-----------------|-----9-7---9-----|-----------------|
|-----------------|---7-------------|-----------------|---7-------------|
|-7-------------0-|(0)----0-5---5-0-|-7-------------0-|(0)----0-5-5-5-0-|
  E E E Q   Q   E   E E E E E E E E   E E E Q   Q   E   E E E E E E E E

|-----------------|-----------------|-----------------|-----------------|
|-----9-7---9-----|-----------------|-----9-7---9-----|-----------------|
|-----------------|---7-------------|-----------------|---7-------------|
|-7-------------0-|(0)----0-5---5-0-|-7-------------0-|(0)----0-5---5-0-|
  E E E Q   Q   E   E E E E E E E E   E E E Q   Q   E   E E E E E E E E

Pre-Chorus 3

|-----------------|-----------------|-----------------|-----------------|
|-----5-5-----5-5-|-----5-------5---|-----9-7---9-----|-----------------|
|-----------------|-----------------|-----------------|---7-------------|
|-3-------3-3-----|-3-------3-------|-7-------------0-|(0)----0-5-5-5---|
  E E E E E E E E   E E E E E E E E   E E E Q   Q   E   E E E E E E E E 

|-----------------|-----------------|-----------------|-----------------|
|-----5-5-----5-5-|-----5-------5---|-----9-7---9-----|-----------7---8-|
|-----------------|-----------------|-----------------|---7-------------|
|-3-------3-3-----|-3-------3-------|-7-------------0-|(0)----0-5---6---|
  E E E E E E E E   E E E E E E E E   E E E Q   Q   E   E E E E E E E E 

|-----------------|-----------------|/6--/6---4---4/6-|-2---------------|
|-----9-9-----9-9-|-----9-------9---|-----------------|-----------------|
|-----------------|-----------------|-----------------|-----------------|
|-7-------7-7-----|-7-------7-------|-----------------|-----------------|
  E E E E E E E E   E E E E E E E E   Q   Q   E E E E   W

Chorus 3

|-----------------|-----------------|-----------------|-----------------|
|-----9-7---9-----|-----------------|-----9-7---9-----|-----------------|
|-----------------|---7-------------|-----------------|---7-------------|
|-7-------------0-|(0)----0-5---5-0-|-7-------------0-|(0)----0-5-5-5-0-|
  E E E Q   Q   E   E E E E E E E E   E E E Q   Q   E   E E E E E E E E

|-----------------|-----------------|-----------------|-----------------|
|-----9-7---9-----|-----------------|-----9-7---9-----|---------7---8---|
|-----------------|---7-------------|-----------------|---7-------------|
|-7-------------0-|(0)----0-5---5-0-|-7-------------0-|(0)----0---5---6-|
  E E E Q   Q   E   E E E E E E E E   E E E Q   Q   E   E E E E E E E E

Chorus 2

|-----------------|-----------------|-----------------|-----------------|
|-----9-7---9-----|-----------------|-----9-7---9-----|-----------------|
|-----------------|---7-------------|-----------------|---7-------------|
|-7-------------0-|(0)----0-5---5-0-|-7-------------0-|(0)----0-5-5-5-0-|
  E E E Q   Q   E   E E E E E E E E   E E E Q   Q   E   E E E E E E E E

|-----------------|-----------------|-----------------|-----------------|
|-----9-7---9-----|-----------------|-----9-7---9-----|-----------------|
|-----------------|---7-------------|-----------------|---7-------------|
|-7-------------0-|(0)----0-5---5-0-|-7-------------0-|(0)----0-5---5-0-|
  E E E Q   Q   E   E E E E E E E E   E E E Q   Q   E   E E E E E E E E

Chorus 2

|-----------------|-----------------|-----------------|-----------------|
|-----9-7---9-----|-----------------|-----9-7---9-----|-----------------|
|-----------------|---7-------------|-----------------|---7-------------|
|-7-------------0-|(0)----0-5---5-0-|-7-------------0-|(0)----0-5-5-5-0-|
  E E E Q   Q   E   E E E E E E E E   E E E Q   Q   E   E E E E E E E E

|-----------------|-----------------|---------------7-|-----9---11--9-7-|
|-----9-7---9-----|-----------------|-----9-7---9---7-|---7---7---------|
|-----------------|---7-------------|-----------------|-----------------|
|-7-------------0-|(0)----0-5---5-5-|-7---------------|-----------------|
  E E E Q   Q   E   E E E E E E E E   E E E Q   Q   E   E E E E Q   E E

Interlude 1

|-----------------|-----------------|-----------------|-----------------|
|-----9-7---9-----|-----------------|-----9-7---9-----|-----------------|
|-----------------|---7-------------|-----------------|---7-------------|
|-7-------------0-|(0)----0-5---5-0-|-7-------------0-|(0)----0-5-5-5-0-|
  E E E Q   Q   E   E E E E E E E E   E E E Q   Q   E   E E E E E E E E

|-----------------|-----------------|---------------7-|(7)--------------|
|-----9-7---9-----|-----------------|-----9-7---9-----|-----------------|
|-----------------|---7-------------|-----------------|-----------------|
|-7-------------0-|(0)----0-5---5-0-|-7---------------|-----------------|
  E E E Q   Q   E   E E E E E E E E   E E E Q   Q   E   E E H.

Verse 3

|-----------------|-----------------|-----------------|-----------------|
|-----9-7---9-----|-----------------|-----9-7---9-----|-----------------|
|-----------------|---7-------------|-----------------|---7-------------|
|-7-------------0-|(0)----0-5---5-0-|-7-------------0-|(0)----0-5-5-5-0-|
  E E E Q   Q   E   E E E E E E E E   E E E Q   Q   E   E E E E E E E E

|-----------------|-----------------|-----------------|-11-9-7-9-7---7-----------|
|-----9-7---9-----|-----------------|-----9-7---9-----|------------9---9-7-9-7---|
|-----------------|---7-------------|-----------------|------------------------9-|
|-7-------------0-|(0)----0-5---5---|-7-------------x-|--------------------------|
  E E E Q   Q   E   E E E E E E E E   E E E Q   Q   E    S S E S S E S S E S S E

Interlude 2

|-----------------|-----------------|-----------------|-----------------|
|-----9-7---9-----|-----------------|-----9-7---9-----|-----------------|
|-----------------|---7-------------|-----------------|---7-------------|
|-7-------------0-|(0)----0-5---5---|-7-------------0-|(0)----0-5-5-5-0-|
  E E E Q   Q   E   E E E E E E E E   E E E Q   Q   E   E E E E E E E E

|-----------------|-----------------|-----------------|-------------7-7-|
|-----9-7---9-----|-----------------|-----9-7---9---7-|---7---7-8-9-----|
|-----------------|---7-------------|---------------7-|-7---9-----------|
|-7-------------0-|(0)----0-5---5---|-7---------------|-----------------|
  E E E Q   Q   E   E E E E E E E E   E E E Q   Q   E   E E E E E E E E

Solo

|-----------------|-----------------|-----------------|-----------------|
|-----9-7---9-----|-----------------|-----9-7---9-----|-----------------|
|-----------------|---7-------------|-----------------|---7-------------|
|-7-------------0-|(0)----0-5---5---|-7-------------0-|(0)----0-5-5-5-0-|
  E E E Q   Q   E   E E E E E E E E   E E E Q   Q   E   E E E E E E E E

|-----------------|-----------------|-----------------|-----------------|
|-----9-7---9-----|-----------------|-----9-7---9-----|-----------------|
|-----------------|---7-------------|-----------------|---7-------------|
|-7-------------0-|(0)----0-5---5---|-7-------------0-|(0)----0-5-5-5---|
  E E E Q   Q   E   E E E E E E E E   E E E Q   Q   E   E E E E E E Q

|-----------------|-----------------|-----------------|---------11-9-----|
|-----9-7---9-----|-----------------|-----9-7---9-----|-----7-9----------|
|-----------------|---7-------------|-----------------|--------------5---|
|-7-------------0-|(0)----0-5---5---|-7-------------0-|(0)-------------5-|
  E E E Q   Q   E   E E E E E E E E   E E E Q   Q   E   E E E E E  E E E

|-----------------|-----------------|-----------------|-----------------|
|-----------------|-----------------|-----------------|-----------------|
|-5\--------------|-----------------|-----------------|-----------------|
|-----------------|-----------------|-----------------|-----------------|
  W                 W                 W                 W

|-----------------|-----------------|-----------------|---------------7-|
|-----------------|-----------------|-----------------|-----------------|
|-5\--------------|-----------------|-----------------|-----------------|
|-----------------|-----------------|-----------------|-----------------|
  W                 W                 W                 H.          E E

|-----------------|-----------------||
|-----------------|-----------------||
|-----------------|-----------------||
|-----------------|-----------------||
  W                 W

Key to rhythm notations:

W - Whole Note/Semi-Brieve
H - Half Note/Minim
Q - Quarter Note/Crotchet       Q. - Dotted Quarter Note
E - Eight Note/Quaver           E. - Dotted Eight Note
S - Sixteenth Note/Semi-Quaver  S. - Dotted Sixteenth Note
Добавлено: 28.02.2016
Другие материалы по этой песне:

Страница создана 29.05.2012
http://primanota.ru/prince/private-joy-chords.htm
Привет, Гость.
Предлагаем пройти революционный курс по гитаре.
Подарок от PrimaNota.Ru, забирай!