PrimaNota.ru - самый крупный в мире бесплатный архив песенных текстов, аккордов, табулатур и нот


Prince - Play in The Sunshine - текст песни, бас-таба, видео

Регистрация Запомнить меня
Войти через:  Facebook Google Twitter Vk Yandex Mail.ru

Prince - Play in The Sunshine - текст песни, бас-таба, видео

Печатать
Просмотров: 43
Авторы музыки: Prince
Авторы текста: Prince
                               Play In The Sunshine
                                      Prince

Bass                                                              Prince

As played by Prince

Intro

7 Bars Rest

|-----------------|
|-----------------|
|-------------4---|
|-----5---7-------|
  Q   Q   Q   Q

|---------------7-|---5-------------|-----------------|-----------------|
|-------------7---|-----------------|---------------7-|---5-------------|
|-5-------5-------|-----------------|-----------4-7---|-----------------|
|-----------------|-----------------|-5-------5-------|-----------------|
  H       Q   E E   E E H.            H       E E E E   E E H.

|-----------------|-----------------|-----------------|-----------------|
|-----------------|-----------------|---------------7-|---5-----5---5---|
|-----------------|-----------------|-----------4-7---|-----------------|
|-3---------------|-2-------0-------|-5-------5-------|-----------------|
  W                 H       H         H       E E E E   E Q.    Q   Q

|---------------7-|---5-----5---5---|-----------------|-----------------|
|-------------7---|-----------------|---------------7-|---5-------------|
|-5-------5-------|-----------------|-----------4-7---|-----------------|
|-----------------|-----------------|-5-------5-------|-----------------|
  H       Q   E E   E Q.    Q   Q     H       E E E E   E E H.

|-----------------|-----------------|-----------------|-----------------|
|-----------------|-----4-------2---|-----------------|-----------------|
|-----------------|-----------------|-----------7-7---|-----7-----------|
|-3-----3---------|-2-------0-------|-5-------5-------|-5-------0---5-5-|
  Q.    E H         Q   Q   Q   Q     H       E E Q     Q   Q   Q   E E

Verse 1

|-----------------|-----------------|-----------------|-----------------|
|---------------7-|---5-----5---5---|---------------7-|---5-------------|
|-------------7---|-----------------|-------------7---|-----------------|
|-5-------5-------|-----------------|-5-------5-------|-----------------|
  H       Q   E E   E Q.    Q   Q     H       Q   E E   E E H.

|---------------7-|-5---------------|-----------------|-----------------|
|-------7---------|-----------------|---------------7-|-5---5-------5-5-|
|-5---------5-----|-----------------|-------7---------|-----------------|
|-----------------|-----------------|-5---------5-----|-----------------|
  Q.    Q   Q   E   W                 Q.    Q   Q   E   Q   H       E E

|-----------------|-----------------|-----------------|-----------------|
|-----------------|-----------------|---------------7-|---5-------------|
|-----------------|-----------------|-------------7---|-----------------|
|-3---------------|-2---2---0-------|-5-------5-------|-----------------|
  W                 Q   Q   H         H       Q   E E   E E H.

|-----------------|-----------------|-----------------|-----------------|
|-----------------|-----------------|---------------7-|---5-------------|
|-----------------|-----------------|-------------7---|-----------------|
|-3-----3-3---3---|-2---2---0---0---|-5-------5-------|-----0---2---3---|
  Q.    E Q   Q     Q   Q   Q   Q     H       Q   E E   E E Q   Q   Q

Chorus 1

|-----------------|-----------------|-----------------|-----------------|
|---------------7-|---5-------------|---------------7-|---5-------------|
|-------------7---|-----------------|-------------7---|-----------------|
|-5-------5-------|-----------------|-5-------5-------|-----------------|
  H       Q   E E   E E H.            H       Q   E E   E E H.

|---------------7-|---5-------------|-----------------|-----------------|
|-----------4-7---|-----------------|---------------7-|---5-------------|
|-5-------5-------|-----------------|-----------4-7---|-----------------|
|-----------------|-----------------|-5-------5-------|-----------------|
  H       E E E E   E E H.            H       E E E E   E E H.

|-----------------|-----------------|-----------------|-----------------|
|-----------------|-----4-------2---|---------------7-|---5-------------|
|-----------------|-----------------|-------------7---|-----------------|
|-3---3---3---3---|-2-------0-------|-5-------5-------|-----0---2---3---|
  Q   Q   Q   Q     Q   Q   Q   Q     H       Q   E E   E E Q   Q   Q

|-----------------|-----------------|-----------------|-----------------|
|---------------7-|---5-------------|---------------7-|---5-------------|
|-------------7---|-----------------|-------------7---|-----------------|
|-5-------5-------|-----------------|-5-------5-------|---------0---5---|
  H       Q   E E   E E H.            H       Q   E E   E E Q.  Q   Q

|---------------7-|---5-------------|-----------------|-----------------|
|-----------4-7---|-----------------|---------------7-|---5-------------|
|-5-------5-------|-----------------|-----------4-7---|-----------------|
|-----------------|-----------------|-5-------5-------|-----------------|
  H       E E E E   E E H.            H       E E E E   E E H.

|-----------------|-----------------|-----------------|-----------------|
|-----------------|-----4-------2---|---------------7-|-----------------|
|-----------------|-----------------|-------------7---|-----------------|
|-3-----3---------|-2-------0-------|-5-------5-------|---------0---5---|
  Q.    E H         Q   Q   Q   Q     H       Q   E E   H       Q   Q

|-----------------|-----------------|-----------------|-----------------|
|---------------7-|---5-------------|---------------7-|---5-------------|
|-----------4-7---|-----------------|-------------7---|-----------------|
|-5-------5-------|-----------------|-5-------5-------|-----------------|
  H       E E E E   E E H.            H       Q   E E   E E H.

|-----------------|-----------------|-----------------|-----------------|
|---------------7-|---5-------------|-----------------|-----------------|
|-----------4-7---|-----------------|-----------------|---------4---7---|
|-5-------5-------|---------0---5---|-3-----5---------|-----7-----------|
  H       E E E E   E E Q   Q   Q     Q.    E H         Q   Q   Q   Q

Verse 2

|-----------------|-----------------|-----------------|-----------------|
|---------------7-|---5-------------|---------------7-|---5-------------|
|-------------7---|-----------------|-------------7---|-----------------|
|-5-------5-------|-----------------|-5-------5-------|---------0---5---|
  H       Q   E E   E E H.            H       Q   E E   E E Q   Q   Q

|---------------7-|---5-------------|-----------------|-----------------|
|-----------4-7---|-----------------|---------------7-|---5-----5---5---|
|-5-------5-------|-----------------|-------------7---|-----------------|
|-----------------|-----------------|-5-------5-------|-----------------|
  H       E E E E   E E H.            H       Q   E E   E Q.    Q   Q

|-----------------|-----------------|-----------------|-----------------|
|-----------------|-----------------|---------------7-|---5/------------|
|-----------------|-----------------|-------------7---|-----------------|
|-3---3---3---3---|-2---2---0---0---|-5-------5-------|-----------------|
  Q   Q   Q   Q     Q   Q   Q   Q     H       Q   E E   E E H.

|-----------------|-----------------|-----------------|-----------------|
|---------------7-|---5-------------|---------------7-|---5-------------|
|-------------7---|-----------------|-------------7---|-----------------|
|-5-------5-------|-----------------|-5-------5-------|---------0---5---|
  H       Q   E E   E E H.            H       Q   E E   E E Q   Q   Q

|---------------7-|---5-----5---5---|-----------------|-----------------|
|-----------4-7---|-----------------|---------------7-|---5-------------|
|-5-------5-------|-----------------|-------------7---|-----------------|
|-----------------|-----------------|-5-------5-------|-----------------|
  H       E E E E   E Q.    Q   Q     H       Q   E E   E E H.       

|-----------------|-----------------|-----------------|-----------------|
|-----------------|-----4-------2---|---------------7-|---5-------------|
|-----------------|-----------------|-------------7---|-----------------|
|-3---3---3---3---|-2-------0-------|-5-------5-------|-----0---2---3---|
  Q   Q   Q   Q     Q   Q   Q   Q     H       Q   E E   E E Q   Q   Q

Chorus 2

|-----------------|-----------------|-----------------|-----------------|
|---------------7-|---5-------------|---------------7-|---5-----5---5---|
|-----------4-7---|-----------------|-----------4-7---|-----------------|
|-5-------5-------|---------0---5---|-5-------5-------|-----------------|
  H       E E E E   E Q.    Q   Q     H       Q   E E   E Q.    Q   Q

|---------------7-|---5-----5---5---|-----------------|-----------------|
|-----------4-7---|-----------------|---------------7-|---5---------7---|
|-5-------5-------|-----------------|-----------4-7---|-----------------|
|-----------------|-----------------|-5-------5-------|-----------------|
  H       E E E E   E Q.    Q   Q     H       E E E E   E E H       Q

|-----------------|-----------------|-----------------|-----------------|
|-----------------|-----------------|---------------7-|---5-------------|
|-----------------|-----------------|-------------7---|-----------------|
|-3-----3-------3-|-2-------0-------|-5-------5-------|-----0---2---3---|
  Q.    E Q.    E   H       H         H       Q   E E   E E Q   Q   Q

Bridge

|-----------------|-----------------|-----------------|-----------------|
|-----------------|-----------------|-----------------|-----------------|
|-----------------|-----------------|-----------------|---------0-2-3-4-|
|-5---------------|-----------------|-----------------|-----------------|
  Q   Q   H         W                 W                 H       E E E E

|-----------------|-----------------|-----------------|-----------------|
|-----------------|-----------------|-----------------|-----------------|
|-5---5---5---5---|-5---5---5---5---|-3---3---3---3---|-3---3---3---3---|
|-----------------|-----------------|-----------------|-----------------|
  Q   Q   Q   Q     Q   Q   Q   Q     Q   Q   Q   Q     Q   Q   Q   Q

|-----------------|-----------------|-----------------|-----------------|
|-----------------|-----------------|-----------------|-----------------|
|-2---2---2---2---|-2---2---2---2---|-1---1---1---1---|-1---1---1---1---|
|-----------------|-----------------|-----------------|-----------------|
  Q   Q   Q   Q     Q   Q   Q   Q     Q   Q   Q   Q     Q   Q   Q   Q

Guitar Solo

|-----------------|-----------------|-----------------|-----------------|
|-----------------|-----------------|-----------------|-----------------|
|-----------------|-----------------|-----------------|-----------------|
|-5---------------|-----------------|-----------------|-------------5---|
  Q   Q   H         W                 W                 H       Q   Q

|-----------------|-----------------|-----------------|-----------------|
|-----------------|-----------------|-----------------|-----------------|
|-----------------|-----------------|-----------------|-----------------|
|-----------------|-----------------|-----------------|-------------5---|
  W                 W                 W                 H       Q   Q

|-----------------|-----------------|-----------------|-----------------|
|-----------------|-----------------|-----------------|-----------------|
|-----------------|-----------------|-----------------|-----------------|
|-----------------|-------------5---|-----------------|-------------5---|
  W                 H       Q   Q     W                 H       Q   Q

|-----------------|-----------------|-----------------|-----------------|
|-----------------|-----------------|-----------------|-----------------|
|-----------------|-----------------|-----------------|-----------------|
|-------------5---|-------------5---|-----5-------5---|-----0---2---0---|
  H       Q   Q     H       Q   Q     Q   Q   Q   Q     Q   Q   Q   Q

Chorus 2

|-----------------|-----------------|-----------------|-----------------|
|---------------7-|---5-------------|---------------7-|---5-------------|
|-------------7---|-----------------|-------------7---|-----------------|
|-5-------5-------|-----------------|-5-------5-------|---------0---5---|
  H       Q   E E   E E H.            H       Q   E E   E Q.    Q   Q

|---------------7-|---5---------7---|-----------------|-----------------|
|-----------4-7---|-----------------|---------------7-|---5-------------|
|-5-------5-------|-----------------|-------------7---|-----------------|
|-----------------|-----------------|-5-------5-------|-------------5---|
  H       E E E E   E Q.    Q   Q     H       Q   E E   E E H       Q

|-----------------|-----------------|-----------------|-----------------|
|-----------------|-----4-------2---|-----------------|-----------------|
|-----------------|-----------------|-----------------|-----------------|
|-3-----3---------|-2-------0-------|-5-----5---5-5---|(5)--0---2---0---|
  Q.    E H         Q   Q   Q    Q    Q.    Q   E Q     Q   Q   Q   Q

|-----------------|-----------------|-----------------|-----------------|
|---------------7-|---5-----5---5---|---------------7-|---5-----5---7---|
|-------------7---|-----------------|-----------4-7---|-----------------|
|-5-------5-------|-----------------|-5-------5-------|-----------------|
  H       Q   E E   E Q.    Q   Q     H       E E E E   E Q.    Q   Q

|---------------7-|---5-----5---7---|-----------------|-----------------|
|-----------4-7---|-----------------|---------------7-|---5-----5---7---|
|-5---5---5-------|-----------------|-----------4-7---|-----------------|
|-----------------|-----------------|-5---5---5-------|-----------------|
  Q   Q   E E E E   E Q.    Q   Q     Q   Q   E E E E   E Q.    Q   Q

|-----------------|-----------------|-----------------|-----------------|
|-----------------|-----4-------2---|---------------7-|---5-------------|
|-----------------|-----------------|-------------7---|-----------------|
|-3-----3---------|-2-------0-------|-5---------------|-----0---2---3---|
  Q.    E H         Q   Q   Q    Q    H       Q   E E   E E Q   Q   Q

Drum Solo

|-----------------|----------------|
|-----------------|---  15 Bar  ---|
|-----------------|---   Rest   ---|
|-5---------------|----------------|

Bass Solo

|-------6---------|---------6-------|-----------------|-----------------|
|-9-----------7---|(7)--7-----------|-----------------|-----------------|
|-----------------|-------------0---|-----------------|-----------------|
|-----------------|-----------------|-3-----5-----5---|(5)--5---5-------|
  Q.    Q.    Q     Q   Q   Q   Q     Q.    Q.    Q     Q   Q   Q   Q
                                                           _____
                                                          |  3  |
|-------6---------|-------------7-5-|-11-10-9-----9-----|-11-10-9-----------|
|-9-----------7---|---------3-4-----|---------9-------9-|---------9---------|
|-----------------|---5-6-7---------|-------------------|-------------------|
|-----------------|-----------------|-------------------|-------------0-----|
  Q.    Q.    Q     E E E E E E E E   E  E  E Q   Q   E   E  E  E Q   E Q.

Outro

|-----------------|-----------------|-----------------|-----------------|
|-----------------|-----------------|-----------------|-----------------|
|-6-----6-----6---|-----------------|-6-----6-----6---|-----------------|
|-----------------|-----------------|-----------------|-----------------|
  Q.    Q.    Q     W                 Q.    Q.    Q     W               

|-----------------|-----------------|-----------------|-----------------|
|-----------------|-----------------|-----------------|-----------------|
|-6-----6-----6---|-----------------|-6-----6-----6---|-----6-----------|
|-----------------|-----------------|-----------------|---------1---3---|
  Q.    Q.    Q     W                 Q.    Q.    Q     Q   Q   Q   Q     

|-----------------|-----------------|-----------------|-----------------|
|-----------------|-----------------|-----------------|-----------------|
|-6-----6---------|-6---6---6-------|-6---6---6---6---|-6---6---6---6---|
|---------------6-|-------------6---|-----------------|-----------------|
  Q.    H       E   Q   Q   Q   Q     Q   Q   Q   Q     Q   Q   Q   Q   

|-----------------|-----------------|-----------------|-----------------|
|-----------------|-----------------|-4---------4-----|-----6-------4-3-|
|-6---6---6---6---|-6---6---6-------|-------6---------|-6---------------|
|-----------------|-------------6---|-----------------|-----------------|
  Q   Q   Q   Q     Q   Q   Q   Q     Q.    Q   Q.      Q   H       E E

|-----------------|-----------------|-----------------|-----------------|
|-1-------1-1-----|-1---1---1-------|-1-1-----1-1-----|-1---1-1-1-------|
|-----4-1-----4-1-|-----------------|-----4-1-----4-1-|-----------------|
|-----------------|-----------------|-----------------|-----------------|
  Q   E E E E E E   E E E E E Q.      E E E E E E E E   Q   E E E Q.

|-----------------|-----------------|-----------------|-----------------|
|-1-1-----1-1-----|-1---1---1-------|-1-1-----1-1-----|-1-------4---6---|
|-----4-1-----4-1-|-----------------|-----4-1-----4-1-|-----------------|
|-----------------|-----------------|-----------------|-----------------|
  E E E E E E E E   E E E E E Q.      E E E E E E E E   Q   E E Q   Q

|-8---6---5-------|-8-8-5---6-6-5---|-8---6---5-5-----|-----5-8-------5-|
|-------------8---|---------------8-|-------------8---|---5-------------|
|-----------------|-----------------|-----------------|-6---------------|
|-----------------|-----------------|-----------------|-----------------|
  Q   Q   Q   Q     E E Q   E E E E   Q   Q   E E Q     E E E H       E

|-------8---8-8---|-8---8-----------|-8-------5-------|-----7---8-------|
|-----8-----------|-------8-4-------|-----8-8-----8---|-----------------|
|-6---------------|-------------6---|-----------------|-----------------|
|-----------------|-----------------|-----------------|-----------------|
  Q   E Q   E Q     Q   E E Q   Q     Q   E E Q   Q     Q   Q   Q   Q

Outro 2

|-----------------|-----------------|-----------------|-----------------|
|-----------------|-----------------|-----------------|-----------------|
|-5---------------|(5)--------------|-----------------|-----------------|
|-----------------|-----------------|-3---------------|(3)--------------|
  W                 W                 W                 W

|-----------------|-----------------|-----------------|-----------------||
|-----------------|-----------------|-----------------|-----------------||
|-----------------|-----------------|-----------------|-----------------||
|-3---------------|-----------------|-3---------------|-----------------||
  Q   H.            W                 Q   H.            W


Key to rhythm notations:

W - Whole Note/Semi-Brieve
H - Half Note/Minim
Q - Quarter Note/Crotchet       Q. - Dotted Quarter Note
E - Eight Note/Quaver           E. - Dotted Eight Note
S - Sixteenth Note/Semi-Quaver  S. - Dotted Sixteenth Note
Добавлено: 14.04.2016
Другие материалы по этой песне:

Страница создана 03.03.2012
http://primanota.ru/prince/play-in-the-sunshine-chords.htm
Привет, Гость.
Предлагаем пройти революционный курс по гитаре.
Подарок от PrimaNota.Ru, забирай!