PrimaNota.ru - самый крупный в мире бесплатный архив песенных текстов, аккордов, табулатур и нот


Prince - Peach - текст песни, таба, бас-таба, видео

Регистрация Запомнить меня
Войти через:  Facebook Google Twitter Vk Yandex Mail.ru

Prince - Peach - текст песни, таба, бас-таба, видео

Печатать
Просмотров: 565
Уроки эстрадного вокала в Санкт-Петербурге
Авторы музыки: Prince
Авторы текста: Prince
This song can be found on "the hits 1 & 2". I transcribed the opening
riff that's used as a turnaround throughout the song as well as the 1st
solo. I don't own a guitar with a dive bar or the effects 2 duplicate the
sounds on the 2nd and 3rd solos so U're on your own. have fun this song
rocks!!!
 
 
intro:riff 1
E----------------------------
B----------------------------
G----------------------------
D--6-6-4-4-3-3-2-2-2--------
A--4-4-2-2-1-1-0-0-0--------
E--------------------2-3-4---
 
Basic structure:
 
Verse:
She was (Db) dark.. tan.. me glad 2 be a man..
She was (Gb) young.. smart. just one (Db) g....
The (Bb) kinda girl.. wanna (Gb) teach.. She's a peach (Riff 1)
Summer (Db) time.. ....
Here she (Gb) comes.. red.. tongue (Db) ....
Hot (Bb) pants.. hide her (Gb) cheeks.. She's a peach (Riff 1)
 
Guitar solo 1:
E--9-9-9-9-9-9-9-----9----------------------------------
B--9-9-9-9-9-9-9-----9------9---------------------------
G----------------9h11--9h11----9------------------------
D--------------------------------11-9--------------------
A-------------------------------------11-9---------------
E------------------------------------------12-9----------
 
 
E---------------------------------------------------
B---------------------------------------------------
G----------9------------------9b---------13-15-12--
D--9h11-11---11--9h11-9h11-11---------11---------
A---------------------------------9-9---------------
E----------------------------------------------------
 
 
E--------------------------------------------------------------
B--------------------------------------------------------------
G-----12----11h13----11h13----11h13----11h13----13b--------
D--11----11-------11-------11-------11-------11--------------
A---------------------------------------------------14---------
E--------------------------------------------------------------
 
 
E------------------------------19b--------
B--19b-19b-19-17----------17b------------
G----------------18-18-18-----------------
D-----------------------------------------
A-----------------------------------------
E-----------------------------------------
 
She's so (Db) ...
Every (Gb) way.. winner.. turn her (Db) ...
The (Bb) one.. mamma 2 (Gb) meet.. She's a peach (Riff 1)
(Guitar solo 2)
I would (Db) die....
She's so (Gb) cool ..so ugly.. fool (Db) she ...
This (Bb) kinda girl.. out of (Gb) reach.. She's a peach (Riff 1)
(ending solo)
(riff 1) (Db) end.
 
 
Note: use a heavy distortion and mute some of the higher
strings when playing the chords. try using 5's (top 3 notes only)
corrections and last 2 solos welcome. Michael


     
Добавлено: 04.08.2013
Другие материалы по этой песне:
  • Аккорды и текст

Страница создана 26.02.2012
http://primanota.ru/prince/peach-chords.htm
Привет, Гость.
Предлагаем пройти революционный курс по гитаре.
Подарок от PrimaNota.Ru, забирай!