PrimaNota.ru - самый крупный в мире бесплатный архив песенных текстов, аккордов, табулатур и нот


Prince - Partyup - текст песни, бас-таба, видео

Регистрация Запомнить меня
Войти через:  Facebook Google Twitter Vk Yandex Mail.ru

Prince - Partyup - текст песни, бас-таба, видео

Печатать
Просмотров: 60
Авторы музыки: Prince
Авторы текста: Prince
                                     Party Up
                                      Prince

Bass                                                              Prince 

As played by Prince

Intro

|-----------------|---------------|-----------------|-----------------|
|---------5-7-5\2-|---------------|---------5-7-5\2-|-----------------|
|-0-0-0-----------|-0-0-0---3-5-3-|-0-0-0-0---------|-0-0-0---3-5-3\2-|
|-------3---------|-------3-------|-----------------|-------0---------|
  E E E E E.E.S S   E E E E E.E.E   E E E E E.E.S S   E E E E E.E.S S

|-------------------|-------------------|-----------------|-----------------|
|-----------5-7-5\2-|-------------------|---------5-7-5\2-|-----------------|
|-0-0-0-------------|-0-0-0-----3-5-3\2-|-0-0-0-----------|-0-0-0-1-2-------|
|-------3p0---------|-------3p0---------|-------0---------|-----------0-2-3-|
  E E S S E E.E.S S   E E S S E E.E.S S   E E E E E.E.S S   E E E E E E E E

Verse 1

|-----------------|-----------------|-----------------|-----------------|
|---------5-7-5\2-|-----------------|---------5-7-5\2-|-----------------|
|-0-0-0-0---------|-0-0-0---3-5-3\2-|-0-0-0-0---------|-0-0-0---3-5-3\2-|
|-----------------|-------0---------|-----------------|-----------------|
  E E E E E.E.S S   E E E E E.E.S S   E E E E E.E.S S   E E E E E.E.S S

|-----------------|---------------|-----------------|---------------|
|---------5-7-5\2-|---------------|---------5-7-5\2-|---------------|
|-0-0-0-0---------|-0-0-0-0-3-5-3-|-----------------|---------3-5-3-|
|-----------------|---------------|-0-0-0-0---------|-0-0-0---------|
  E E E E E.E.S S   E E E E E.E.E   E E E E E.E.S S   E E E E E.E.E

|-----------------|---------------|
|---------5-7-5\2-|---------------|
|-0-0-0-0---------|-0-0-0-0-3-5-4-|
|-----------------|---------------|
  E E E E E.E.S S   E E E E E.E.E

Pre-Chorus 1

|-----------------|-------------5---|-----------------|-------------5---|
|-----------------|---------7-5-----|-----------------|---------7-5-----|
|-5-5-3---2-3-----|-----------------|-5-5-3---2-3-----|-----------------|
|-----------------|-----------------|-----------------|-----------------|
  E E E E E.S Q     H       E E E E   E E E E E.S Q     H       E E E E

|-----------------|-------------5---|-----------------|-------------5---|
|-----------------|---------7-5-----|-----------------|---------7-5-----|
|-5-5-3---2-3-----|-----------------|-5-5-3---2-3-----|-----------------|
|-----------------|-----------------|-----------------|-----------------|
  E E E E E.S Q     H       E E E E   E E E E E.S Q     H       E E E E

Instrumental 1

|-----------------|-----------------|-----------------|---------------|
|---------5-7-5\2-|-----------------|---------5-7-5\2-|---------------|
|-0-0-0-0---------|-0-0-0-2-3-5-3\2-|-0-0-0-----------|-0-0-0---3-5-3-|
|-----------------|-----------------|-------0---------|-------0-------|
  E E E E E.E.S S   E E E E E.E.S S   E E E E E.E.S S   E E E E E.E.E

Verse 2

|-----------------|-----------------|---------------|-----------------|
|---------5-7-5\2-|-----------------|---------5-7---|-----------------|
|-0-0-0-----------|-0-0-0-2-3-5-3\2-|-0-0-0---------|-0-0-0---3-5-3\2-|
|-----------------|-----------------|---------------|-----------------|
  E E E E E.E.S S   E E E E E.E.S S   E E E E E.E.E   E E E E E.E.S S

|---------------|-----------------|-----------------|---------------|
|---------5-7-5-|-----------------|---------5-7-5\2-|---------------|
|-0-0-0---------|-0-0-0---3-5-3\2-|-0-0-0-0---------|-0-0-0---3-5-3-|
|-------3-------|-------0---------|-----------------|---------------|
  E E E E E.E.E   E E E E E.E.S S   E E E E E.E.S S   E E E E E.E.E

|-----------------|---------------|
|---------5-7-5\2-|---------------|
|-0-0-0-0---------|-0-0-0-0-3-5-4-|
|-----------------|---------------|
  E E E E E.E.S S   E E E E E.E.E

Pre-Chorus 2 (Same as Pre-Chorus 1)

|-----------------|-------------5---|-----------------|-------------5---|
|-----------------|---------7-5-----|-----------------|---------7-5-----|
|-5-5-3---2-3-----|-----------------|-5-5-3---2-3-----|-----------------|
|-----------------|-----------------|-----------------|-----------------|
  E E E E E.S Q     H       E E E E   E E E E E.S Q     H       E E E E

|-----------------|-------------5---|-----------------|-------------5---|
|-----------------|---------7-5-----|-----------------|---------7-5-----|
|-5-5-3---2-3-----|-----------------|-5-5-3---2-3-----|-----------------|
|-----------------|-----------------|-----------------|-----------------|
  E E E E E.S Q     H       E E E E   E E E E E.S Q     H       E E E E

Chorus 1

|-----------------|-----------------|-----------------|-----------------|
|---------5-7---2-|-----------------|---------5-7-5---|-----------------|
|-0-0-0-----------|-0-0-0---3-5-3\2-|-0-0-0---------7-|-0-0-0---3-5-3\2-|
|-----------------|-------0---------|-------3---------|-----------------|
  E E E E E.Q   S   E E E E E.E.S S   E E E E E.E.S S   E E E E E.E.S S

|-----------------|-------------------|---------------|---------------|
|---------5-7-5-2-|-------------------|---------5-7---|---------------|
|-0-0-0-----------|-0-0-0-----3-5-3\2-|-0-0-0---------|-0-0-0---3-5-4-|
|-------3---------|-------3-0---------|-------3-------|---------------|
  E E E E E.E.S S   E E E S S E.E.S S   E E E E E.E.E   E E E E E.E.E

Instrumental 2 (Same as Pre-Chorus 1)

|-----------------|-------------5---|-----------------|-------------5---|
|-----------------|---------7-5-----|-----------------|---------7-5-----|
|-5-5-3---2-3-----|-----------------|-5-5-3---2-3-----|-----------------|
|-----------------|-----------------|-----------------|-----------------|
  E E E E E.S Q     H       E E E E   E E E E E.S Q     H       E E E E

|-----------------|-------------5---|-----------------|-------------5---|
|-----------------|---------7-5-----|-----------------|---------7-5-----|
|-5-5-3---2-3-----|-----------------|-5-5-3---2-3-----|-----------------|
|-----------------|-----------------|-----------------|-----------------|
  E E E E E.S Q     H       E E E E   E E E E E.S Q     H       E E E E

Bridge

|-7---5---4---5-----|---------5-4-5---|-7---5---4---5-----|---------5-4-5---|
|-0---0-----0-----0-|-0---0-----0---0-|-0---0-----0-----0-|-0---0-----0---0-|
|-------------------|-----------------|-------------------|-----------------|
|-------------------|-----------------|-------------------|-----------------|
  Q   Q   E S S E E   Q   Q   E E E E   Q   Q   E S S E E   Q   Q   E E E E

|-7---5---4---5-----|---------5-4-5---|-7---5---4---5-----|---------5-4-5---|
|-0---0-----0-----0-|-0---0-----0---0-|-0---0-----0-----0-|-0---0-----0-----|
|-------------------|-----------------|-------------------|-----------------|
|-------------------|-----------------|-------------------|-----------------|
  Q   Q   E S S E E   Q   Q   E E E E   Q   Q   E S S E E   Q   Q   E E E E

Chorus 2

|-----------------|---------------|-------------------|-----------------|
|---------5-7-5\2-|---------------|-----------5-7-5\2-|-----------------|
|-0-0-0-----------|-0-0-0---3-5-3-|-0-0-0-------------|-0-0-0-----3-5-3-|
|-------0---------|-------0-------|-------3-0---------|-------3-0-------|
  E E E E E.E.S S   E E E E E.E.E   E E E S S E.E.S S   E E E S S E.E.E

|-----------------|-----------------|---------------|---------------|
|---------5-7---2-|-----------------|---------5-7-5-|---------------|
|-0-0-0-0---------|-0-0-0---3-5-3\2-|-0-0-0-0-------|-0-0-0---3-5-5-|
|-----------------|-------3---------|---------------|-------3-------|
  E E E E E.Q   S   E E E E E.E.S S   E E E E E.E.E   E E E E E.E.E

|---------------|-----------------|-----------------|-----------------|
|---------5-7-5-|-----------------|---------5-7-5\2-|-----------------|
|-0---0---------|-0-0-0---3-5-3-2-|-0-0-0-----------|-0-0-0---3-5-3\2-|
|---------------|-------3---------|-------3---------|-------0---------|
  E E E E E.E.E   E E E E E.E.S S   E E E E E.E.S S   E E E E E.E.S S

|-----------------|-----------------|-----------------|---------------|
|---------5-7-5\2-|-----------------|---------5-7-5\2-|---------------|
|-0-0-0-----------|-0-0-0---3-5-3-2-|-0-0-0-----------|-0-0-0---3-5-3-|
|-------3---------|-------3---------|-------3---------|-------3-------|
  E E E E E.E.S S   E E E E E.E.S S   E E E E E.E.S S   E E E E E.E.E

|-------------5---|---------------|-----------------|---------------|
|---------5-7---7-|---------------|---------5-7-5\2-|---------------|
|-0-0-0-----------|-0-0-0---3-5-3-|-0-0-0-0---------|-0-0-0-2-------|
|-------3---------|-------3-------|-----------------|-----------2-3-|
  E E E E E.E.S S   E E E E E.E.E   E E E E E.E.S S   E E E E E.E.E

|-----------------|-----------------|-----------------|-------------------|
|---------5-7---2-|-----------------|---------5-7-5\2-|-------------------|
|-0-0-0-----------|-0-0-0---3-5-3---|-0-0-0-----------|-0-0-0---2-0-------|
|-------3---------|-------3---------|-------3---------|-------3-----3-3-4-|
  E E E E E.Q   S   E E E E E.E.S S   E E E E E.E.S S   E E E E S S E E E

|-----------------|-----------------|-----------------|---------------|
|---------5-7-5\2-|-----------------|---------5-7---2-|---------------|
|-0-0-0-----------|-0-0-0---3-------|-0-0-0-----------|-0-0-0---3-5-3-|
|-------3---------|-------3---2-3-4-|-------3---------|-------3-------|
  E E E E E.E.S S   E E E E E E E E   E E E E E.Q   S   E E E E E.E.E

|-----------------|-------------------|-----------------|-----------------|
|---------5-7-5\2-|-------------------|---------5-7-5\2-|-----------------|
|-0-0-0-----------|-0-0-0---2-0-------|-0-0-0-0---------|-0-0-0-0-3-5-3\2-|
|-------3---------|-------3-----3-3-4-|-----------------|-----------------|
  E E E E E.E.S S   E E E E S S E E E   E E E E E.E.S S   E E E E E.E.S S

|---------------|---------------|-----------------|-----------------|
|---------5-7---|---------------|---------5-7---2-|-----------------|
|-0-0-0-0-------|-0-0-0---3-5-3-|-0-0-0-0---------|-0-0-0---3-5-3\2-|
|---------------|-------0-------|-----------------|-------0---------|
  E E E E E.E.E   E E E E E.E.E   E E E E E.Q   S   E E E E E.E.S S

Revolutionary Rock and Roll...

|-----------------|-----------------|-----------------|---------------|
|---------5-7---2-|-----------------|---------5-7---2-|---------------|
|-0-0-0-0---------|-0-0-0---3-5-3-2-|-0-0-0-0---------|-0-0-0---3-5-6-|
|-----------------|-------0---------|-----------------|---------------|
  E E E E E.Q   S   E E E E E.E.S S   E E E E E.Q   S   E E E E E.E.E

|-----------------|-----------------|---------------|-----------------|
|---------5-7-7---|-----------------|---------5-7---|-----------------|
|-0-0-0-0-------7-|-0-0-0---3-5-3-2-|-0-0-0-0-------|-0-0-------------|
|-----------------|-------3---------|---------------|-----2---3---4---|
  E E E E E.E.S S   E E E E E.E.S S   E E E E E.E.E   E E Q   Q   Q

|-----------------|-----------------|-----------------|-----------------|
|---------5-7-7---|-----------------|---------5-7-5\2-|-----------------|
|-0-0-0---------7-|-0-0-0---3-------|-0---0-----------|-0---0---3-5-3-2-|
|-----------------|-------3---2-3-4-|---2---2---------|---2---2---------|
  E E E E E.E.S S   E E E E E E E E   E E E E E.E.S S   E E E E E.E.S S

|-----------------||
|-----------------||
|-0---0-----------||
|---2-------------||
  E E E E H


Key to rhythm notations:

W - Whole Note/Semi-Brieve
H - Half Note/Minim
Q - Quarter Note/Crotchet       Q. - Dotted Quarter Note
E - Eight Note/Quaver           E. - Dotted Eight Note
S - Sixteenth Note/Semi-Quaver  S. - Dotted Sixteenth Note
Добавлено: 19.03.2016
Другие материалы по этой песне:
  • Аккорды и текст

Страница создана 25.04.2012
http://primanota.ru/prince/partyup-chords.htm
Привет, Гость.
Предлагаем пройти революционный курс по гитаре.
Подарок от PrimaNota.Ru, забирай!